PrimaNota.ru - самый крупный в мире бесплатный архив песенных текстов, аккордов, табулатур и нот


Gang Of Youths - The Overpass - таба, видео

Регистрация Запомнить меня
Войти через:  Facebook Google Twitter Vk Yandex Mail.ru

Gang Of Youths - The Overpass - таба, видео

Печатать
Просмотров: 58
-------------------------------------------------------------------------------
                             THE OVERPASS - Gang of Youths
-------------------------------------------------------------------------------
Tabbed by: Erin
E-mail: erooney144@hotmail.com

Tuning: EADGBE

A simple way of playing this awesome and devastating tune with one guitar. The rhythm of the intro/verse 
is a little tricky to get at first so have roughly marked it out here - have a listen to the track to hear
for it.

Intro:

    1  2  3  4  |  1  2  3  4  |  1  2  3  4  |  1  2  3  4  |
e|--------------|--------------|--------------|--------------|
B|--------------|--------------|--------------|--------------|
G|-----0-----0--|-----0-----0--|-----2---2----|-----0-----0--|
D|--------------|--------------|--------------|--------------|
A|--3----3-----3|--------------|--3----3---3--|--3----3-----3|
E|--------------|--0----0-----0|--------------|--------------|

Verse 1:

We're stranded at the lights...

e|--------------|--------------|--------------|--------------|
B|--------------|--------------|--------------|--------------|
G|-----0-----0--|-----0-----0--|-----2---2----|-----0-----0--|
D|--------------|--------------|--------------|--------------| x 2
A|--3----3-----3|--------------|--3----3---3--|--3----3-----3|
E|--------------|--0----0-----0|--------------|--------------|


Verse 1 lyrics: 


We're stranded at the lights
With extraordinary distance
Covered in a blanket
Of northern snow
I am your protection
The last line of defence
I'll try to keep my promises
To all of our friends


Pre-chorus:


                  Am
But I don't have a coat,
                  C
And we don't have a car.
                  F           C
Honey if you're patient.


Chorus:

        F
Oh the overpass in Harlem shines like
 C
Neon violence in my blood
 F                                   C
So red and white, and out of our control


Verse 2 (repeat Verse bit):

You swore it on your life
You wouldn't get so tired
But I can hear you lying
Over the phone
This is such a failure
Wholly on my part
To rectify our balance with
The credit on the cards


Pre-chorus:

                  Am
But I don't have the nerve,
                  C
But if you have the heart,
                  F           C
Honey if you're patient.


Chorus:

        F
Oh the overpass in Harlem shines like
 C
Neon violence in my blood
 F                                   C
So red and white, and out of our control


        F
Do they drown their young in Hudson waters,
 C
Bring their children with disorders,
 F                                   C
Into the night and the dark, northern cold


Verse 3 (repeat Verse bit):

You see it in their faces
Strong against the white
Fighting with the angels
For glory and pride
And we are not peculiar
But am I not at fault?
This is the arrangement
And what I've been sold


Pre-chorus:

                  Am
But I don't have the nerve,
                  C
But if you have the heart,
                  F           C
Honey if you're patient.



Chorus:

        F
Oh the overpass in Harlem shines like
 C
Neon violence in my blood
 F                                   C
So red and white, and out of our control


        F
Do they drown their young in Hudson waters,
 C
Bring their children with disorders,
 F                                   C
Into the night and the dark, northern cold

        F
And it shakes and rattles through the ward,
 C
A lightning bolt across the door,
 F
Flourescent like the visions in my sleep

        F
So much braver than our present life
 C
A golden factory of light
 F
And you'll live long enough to catch its beams



Credit to my friend Amer for teaching me how to play this :) Enjoy!
Добавлено: 14.04.2016
Вам также может быть интересно:
Другие материалы по этой песне:
  • Аккорды и текст

Страница создана 14.04.2016
http://primanota.ru/gang-of-youths/overpass-chords.htm
Привет, Гость.
Предлагаем пройти революционный курс по гитаре.
Подарок от PrimaNota.Ru, забирай!