PrimaNota.ru - самый крупный в мире бесплатный архив песенных текстов, аккордов, табулатур и нот


Gang Of Four - Return The Gift - текст песни, бас-таба, видео

Регистрация Запомнить меня
Войти через:  Facebook Google Twitter Vk Yandex Mail.ru

Gang Of Four - Return The Gift - текст песни, бас-таба, видео

Печатать
Просмотров: 191
Авторы: Dave Allen, Hugo Burnham, Jon King, Andy Gill

Band:Gang of Four
Song:Return the Gift
Album:Entertainment!
Bassist:Dave Allen

[RIFF A}

G[-------------------------------------------]
D[-------------------------------------------]
A[-----------7-9h/12-----------5-7h/10------]
E[---5--3--5-----------5--3--5---------------]

G[-------------------------------------------]
D[-------------------------------------------]
A[-----------7-9h/12-------------------------]
E[---5--3--5-----------5--3--5--2--3---------] x1

[RIFF B]

G[-------------------------------------------]
D[-------------------------------------------]
A[-----------7-9h/12-----------5-7h/10------]
E[---5--3--5-----------5--3--5---------------]

G[-----------------------------7/8-----------]
D[---------------------------------8---------]
A[-----------7-9h/12-----------------6h------]
E[---5--3--5-----------5--3--5---------------] x1

[RIFF A]x1

Chorus

abrupt staccato notes

G[-----------------------------------------------]
D[-----------------------------------------------]
A[-----------------------------------------------]
E[-1-1--3-3--5-5--5-5--1-1--3-3--5-5--5-51------]

Not as rigid

G[-----------------------------------------------]
D[-----------------------------------------------]
A[-----------------------------------------------]
E[-1-1--3-3--5-5--5-51--1-1--3-3--5-5-5-51-----]

blended

G[-----------------------------------------------]
D[-----------------------------------------------]
A[-----------------------------------------------]
E[-1-1--3-3--5-5--5-51--1-1--3-3---5555555------] x1

[RIFF A] x1
[RIFF B] x1
[RIFF A] x2

Chorus 2 (like chorus 1 but blended all the way)

G[-------------------------------------------]
D[-------------------------------------------]
A[-----------7-9h/12-----------5-7h/10------]
E[---5--3--5-----------5--3--5---------------] x6

G[-------------------------------------------]
D[-------------------------------------------]
A[------------5-7h/10---------7-9h/12-------]
E[---5--3--5-----------5--3--5---------------] x1

Outro

abrupt staccato notes

G[-------------------------------------------]
D[-------------------------------------------]
A[-------------------------------------------]
E[-1-1--3-3--5-5--5-5--1-1--3-3--5-5--5-5----] x6

G[---------10-------12-----------------------]
D[------10-------12-------14--14--14--14-----]
A[--7/8-------10-------12--------------------]
E[-------------------------------------------]

x till end (only 1st has slide)
Добавлено: 04.07.2012
Другие материалы по этой песне:
  • Аккорды и текст

Страница создана 31.05.2012
http://primanota.ru/gang-of-four/return-the-gift-chords.htm
Привет, Гость.
Предлагаем пройти революционный курс по гитаре.
Подарок от PrimaNota.Ru, забирай!