PrimaNota.ru - самый крупный в мире бесплатный архив песенных текстов, аккордов, табулатур и нот


Gang Of Four - Contract - текст песни, бас-таба, видео

Регистрация Запомнить меня
Войти через:  Facebook Google Twitter Vk Yandex Mail.ru

Gang Of Four - Contract - текст песни, бас-таба, видео

Печатать
Просмотров: 116
Авторы: Dave Allen, Hugo Burnham, Jon King, Andy Gill

Artist: Gang of Four
Song: "Contract"
Album: Entertainment! (1979)



Bass: Dave Allen (Music Man Stingray into Carlsbro Stingray)



INTRO (guitar only, don't play):
G|------------------------------------------------||
D|------------------------------------------------|| x 4
A|------------------------------------------------||
E|------------------------------------------------||
+
G|----------------------------2--#-----2--#--2--#-||
D|-0-h2-------------------------------------------|| x 4
A|----------0-h3-----2-p0-----------0-------------||
E|------------------------------------------------||



VERSE I:
G|------------------------------------------------|
D|------------------------------------------------|
A|-0--#-------------------------------------------|
E|------------------------------------------------|
+
G|------------------------------------------------|
D|------------------------------------------------|
A|------------------------------------------------|
E|------------------------------------------------|
+
G|----------------------2--#-----------12---------|
D|-0--#--------------------------------10---------|
A|-------------3-p2-p0----------------------------|
E|------------------------------------------------|
+
G|----------------------2--#-----------2----------|
D|-0--#-------------------------------------------|
A|-------------3-p2-p0--------0-----0-------------|
E|------------------------------------------------|
+
G|----------------------2--#--2--#--2--#--2-------|
D|-0--#-------------------------------------------|
A|-------------3-p2-p0----------------------------|
E|------------------------------------------------|
+
G|----------------------2--#-----------12---------|
D|-0--#--------------------------------10---------|
A|-------------3-p2-p0--------0--#----------------|
E|------------------------------------------------|
+
G|----------------------2--#----------------------|
D|-0--#-------------------------------------------|
A|-------------3-p2-p0----------------------------|
E|------------------------------------------------|
+
G|----------------------2--#--2--#--2--#--2-------|
D|-0--#-------------------------------------------|
A|-------------3-p2-p0----------------------------|
E|------------------------------------------------|



CHORUS:
G|------------------------------------------------||
D|------------------------------------------------|| x 4
A|------------------------------------------------||
E|-0--0-----0--0-----0--0-----0--0-----0-----0----||
+
G|------------------------------------------------|
D|-2----------------------------------------------|
A|------------------------------------------------|
E|------------------------------------------------|



INTERLUDE I:
G|----------------------2--#-----------12---------|
D|-0--#--------------------------------10---------|
A|-------------3-p2-p0----------------------------|
E|------------------------------------------------|
+
G|----------------------2--#-----------2----------|
D|-0--#-------------------------------------------|
A|-------------3-p2-p0--------0-----0-------------|
E|------------------------------------------------|
+
G|----------------------2--#--2--#--2--#--2-------|
D|-0--#-------------------------------------------|
A|-------------3-p2-p0----------------------------|
E|------------------------------------------------|
+
G|----------------------2--#--2--#--2-------------|
D|-0--#-------------------------------------------|
A|-------------3-p2-p0----------------------------|
E|------------------------------------------------|



VERSE II:
G|------------------------------------------------|
D|------------------------------------------------|
A|-0--#-------------------------------------------|
E|------------------------------------------------|
+
G|------------------------------------------------|
D|------------------------------------------------|
A|------------------------------------------------|
E|------------------------------------------------|
+
G|----------------------------2--#-----2--#--2--#-||
D|-0-h2-------------------------------------------|| x 6
A|----------0-h3-----2-p0-----------0-------------||
E|------------------------------------------------||



BRIDGE:
G|----------------------2--#--2--#--2-------------||
D|-0--#-------------------------------------------|| x 12
A|-------------3-p2-p0----------------------------||
E|------------------------------------------------||



OUTRO (CHORUS):
G|------------------------------------------------||
D|------------------------------------------------|| x 8
A|------------------------------------------------||
E|-0--0-----0--0-----0--0-----0--0-----0-----0----||
+
G|------------------------------------------------|
D|-2----------------------------------------------|
A|------------------------------------------------|
E|------------------------------------------------|



SONG STRUCTURE:

INTRO
VERSE I
CHORUS
INTERLUDE I
VERSE II
CHORUS
BRIDGE
OUTRO



That's it.  Please leave any comments, questions, or requests.  Cheers!


Добавлено: 07.06.2015
Вам также может быть интересно:
Другие материалы по этой песне:
  • Аккорды и текст

Страница создана 16.06.2012
http://primanota.ru/gang-of-four/contract-chords.htm
Привет, Гость.
Предлагаем пройти революционный курс по гитаре.
Подарок от PrimaNota.Ru, забирай!