PrimaNota.ru - самый крупный в мире бесплатный архив песенных текстов, аккордов, табулатур и нот


Gang Green - Weekend Millionaire - таба, видео

Регистрация Запомнить меня
Войти через:  Facebook Google Twitter Vk Yandex Mail.ru

Gang Green - Weekend Millionaire - таба, видео

Печатать
Просмотров: 125
intro:
e|---|--------------------------------------------------|----------|
B|---|--------------------------------------------------|----------|
G|---|--9--7-----------9--7-----------9--7--------------|----------|
D|-3-|--9--7--7--5--7--9--7--7--5--7--9--7--7--5--7--9--|-play-----|
A|-3-|--7--5--7--5--7--7--5--7--5--7--7--5--7--5--7--9--|---2------|
E|-7-|--------5--3--5--------5--3--5--------5--3--5--7--|---times--|
Verse:
e||----------------------------|---------|
B||----------------------------|---------|
G||----9--7--9-----9--67676767-|---------|
D||-7--9--7--9--7--9--67676767-|-play----|
A||-7--7--5--7--7--7--45454545-|--twice--|
E||-5-----------5--------------|---------|
Chorus
e||------------------|--------|
B||------------------|--------|
G||-9--5--7--5--7--9-|--------|
D||-9--5--7--5--7--9-|-play---|
A||-7--3--5--3--5--7-|-twice--|
E||------------------|--------|
Bridge
e||--------------------------------------------------------------------------------------|
B||--------------------------------------------------------------------------------------|
G||-7--5-----------5--7--5-----------5--7--5-----------5--7--5---------------------------|
D||-7--5--5--5--3--5--7--5--5--5--3--5--7--5--5--5--3--5--7--5--5--5--3--5--2------------|
A||-5--3--5--5--3--3--5--3--5--5--3--3--5--3--5--5--3--3--5--3--5--5--3--5--2-hold-------|
E||-------3--3--1-----------3--3--1-----------3--3--1-----------3--3--1--3--0---a-while--|

e|-----------------------------------------------------------------------------------|
B|-----------------------------------------------------------------------------------|
G|-55--77--99------------------------------------------------------------------------|
D|-55--77--99------------------------------------------------------------------------|
A|-33--55--77------------------------------------------------------------------------|
E|-----------------------------------------------------------------------------------|
Добавлено: 29.02.2012
Вам также может быть интересно:
Другие материалы по этой песне:
  • Аккорды и текст

Страница создана 29.02.2012
http://primanota.ru/gang-green/weekend-millionaire-chords.htm
Привет, Гость.
Предлагаем пройти революционный курс по гитаре.
Подарок от PrimaNota.Ru, забирай!