PrimaNota.ru - самый крупный в мире бесплатный архив песенных текстов, аккордов, табулатур и нот


Gang Green - Sold Out - бас-таба, видео

Регистрация Запомнить меня
Войти через:  Facebook Google Twitter Vk Yandex Mail.ru

Gang Green - Sold Out - бас-таба, видео

Печатать
Просмотров: 113
Уроки эстрадного вокала в Санкт-Петербурге
GANG GREEN – SELFISH TAANG DUB / SOLD OUT

Bass tabs

First Rhythm:
|---------------------|---77--55-532------|
|---------------------|---------—---------|
|-5-555-3333-0235-023-|-55--33------5-023-|
|---------------------|-------------------|

|---------------------|-------------------|
|--753--03------------|--7-7-5-5----------|
|-5---03-----0235-023-|-5-5-3-3--0235-023-|
|---------------------|-------------------|

|---------------------|-------------------|
|------777------------|----------555------|
|-5—553---0235-023----|-5-5553333---5—----|
|---------------------|-------------------|

Chorus:
|----------------------------------|
|----------------------------------|
|-55555555555555558888777777777777-| (4x)
|----------------------------------|

|------------------------------------------------------------------|
|------------------------------------------------------------------|
|-2222222222222222555555555555555588887777777777778888777777777777-| (4x)
|------------------------------------------------------------------|

(Then play first rhythm again without lengthening at end.)

|-------------------------------|
|-------------------------------|
|-2-2-22225-5558-7777778-777777-| (4x)
|-------------------------------|  

Guitar Solo:
|------------------------------------------------------------------|
|------------------------------------------------------------------|
|-2222222222222222555555555555555588887777777777778888777777777777-| (4x)
|------------------------------------------------------------------|  
Outro:
|-------------------------|
|-------------------2-----|
|-2---------7---5-------2-|
|-------------------------|

By Rens van Bree
Добавлено: 05.07.2012
Другие материалы по этой песне:
  • Аккорды и текст

Страница создана 05.07.2012
http://primanota.ru/gang-green/sold-out-chords.htm
Привет, Гость.
Предлагаем пройти революционный курс по гитаре.
Подарок от PrimaNota.Ru, забирай!