PrimaNota.ru - самый крупный в мире бесплатный архив песенных текстов, аккордов, табулатур и нот


Gandul Matei - Numai tu - аккорды и текст, видео

Регистрация Запомнить меня
Войти через:  Facebook Google Twitter Vk Yandex Mail.ru

Gandul Matei - Numai tu - аккорды и текст, видео

Печатать
Просмотров: 1008
Numai tu
Gandul Matei
                                GANDUL MATEI - NUMAI TU 
/ Am / Am / G / Em /
  
  Versul I

Am
Un foc si o tigara
G            Em
Doresc sa-mi oferiti
   Am   
Va rog, rog tu domnisoara
G                    Em
Ai mult noroc, caci mi-ai placut

  Refren

Am             G     Em
Numai tu, numai tu...    X2
 
         Am                    G      Em      
---3---3-5-5----3---3-5-5---8-7----8-7----
-5---5--------5---5-------5------5--------
------------------------------------------
------------------------------------------
------------------------------------------
------------------------------------------

         Am                    G      Em      
---3---3-5-5----7---3-5-5---8-7----13-12--
-5---5--------5---5-------5------5--------
------------------------------------------
------------------------------------------
------------------------------------------
------------------------------------------

  Versul II

Am  
Iti dau o ciocolata
G            Em
S-o musti, apoi s-o musc
   Am
Si eu, eu inca o data
G                       Em
Sa musc mai vreu, caci mi-ai placut

  Refren

Am             G     Em
Numai tu, numai tu...    X2

         Am                    G      Em      
---3---3-5-5----3---3-5-5---8-7----8-7----
-5---5--------5---5-------5------5--------
------------------------------------------
------------------------------------------
------------------------------------------
------------------------------------------

         Am                    G      Em      
---3---3-5-5----7---3-5-5---8-7----13-12--
-5---5--------5---5-------5------5--------
------------------------------------------
------------------------------------------
------------------------------------------
------------------------------------------

  Versul III

Am
Ma-mbat de dulcea gura
G           Em
Si cad pe pieptul tau
     Am
Cu drag, drag esti bautura
G                    Em
Cu gust de frag si mi-ai placut

  Versul IV

Am        
Esti vis sau esti aevea
G         Em
Mereu aproape vreau
       Am
Sa-mi fii, fii n-o stiu pe Eva
G                     Em
Nici dor nu mi-i, tu mi-ai placut.

  Refren

Am             G     Em
Numai tu, numai tu...    X2

         Am                    G      Em      
---3---3-5-5----3---3-5-5---8-7----8-7----
-5---5--------5---5-------5------5--------
------------------------------------------
------------------------------------------
------------------------------------------
------------------------------------------
         Am                    G      Em            
---3---3-5-5----7---3-5-5---8-7----13-12--
-5---5--------5---5-------5------5--------         X2
------------------------------------------
------------------------------------------
------------------------------------------
------------------------------------------
Добавлено: 21.07.2014
Другие материалы по этой песне:
  • Аккорды и текст

Страница создана 31.07.2015
http://primanota.ru/gandul-matei/numai-tu-chords.htm
Привет, Гость.
Предлагаем пройти революционный курс по гитаре.
Подарок от PrimaNota.Ru, забирай!