PrimaNota.ru - самый крупный в мире бесплатный архив песенных текстов, аккордов, табулатур и нот


Gandalfs Fist - Untrodden Ways - аккорды и текст, видео

Регистрация Запомнить меня
Войти через:  Facebook Google Twitter Vk Yandex Mail.ru

Gandalfs Fist - Untrodden Ways - аккорды и текст, видео

Печатать
Просмотров: 100
Untrodden Ways
Gandalfs Fist
-----------------------------------------------------------------------------
                                          Artist - Gandalf's Fist
                                         *************************
                                           Song - Untrodden Ways 
                                          ***********************
                                      Album - Road To Darkness (2011) 
                                     *********************************
                                           Tabbed By - Ayreon77
                                          **********************
-----------------------------------------------------------------------------
Tuning = Standard


INTRO
******
RIFF 1
*******
  Dm h                  Am                 G                  Am
e|-12-13---13-13-12----|-12---12-12-------|-----------------------------------|
B|------------------15-|------------15-13-|-13-12----------12-----------------|
G|---------------------|------------------|-------14-12-14----14-14--14-12-14-|
D|---------------------|------------------|-----------------------------------|
A|---------------------|------------------|-----------------------------------|
E|---------------------|------------------|-----------------------------------|X2


-------------------------------------------
VERSE 1
********
    Dm                Am
She dwelt among the untrodden ways
  C        G          Am
Beside the springs of Dove,
  Dm                  Am
A Maid whom there was none to praise
    C    G      Am
And very few to love

RIFF 1
*******
  Dm h                  Am                 G                  Am
e|-12-13---13-13-12----|-12---12-12-------|-----------------------------------|
B|------------------15-|------------15-13-|-13-12----------12-----------------|
G|---------------------|------------------|-------14-12-14----14-14--14-12-14-|
D|---------------------|------------------|-----------------------------------|
A|---------------------|------------------|-----------------------------------|
E|---------------------|------------------|-----------------------------------|X2


-------------------------------------------
VERSE 2
********
  Dm          Am            
A violet by a mossy stone
     C      G        Am
Half hidden from the eye!
     Dm              Am
Fair as a star, when only one
   C       G      Am
Is shining in the sky.

RIFF 1
*******
  Dm h                  Am                 G                  Am
e|-12-13---13-13-12----|-12---12-12-------|-----------------------------------|
B|------------------15-|------------15-13-|-13-12----------12-----------------|
G|---------------------|------------------|-------14-12-14----14-14--14-12-14-|
D|---------------------|------------------|-----------------------------------|
A|---------------------|------------------|-----------------------------------|
E|---------------------|------------------|-----------------------------------|X2


-------------------------------------------
VERSE 3
********
    Dm                 Am
She lived unknown, and few could know
     C    G         Am
When Lucy ceased to be;
      Dm                 Am
She's in her grave, and, oh,
    C    G        Am  
The difference to me!

RIFF 1
*******
  Dm h                  Am                 G                  Am
e|-12-13---13-13-12----|-12---12-12-------|-----------------------------------|
B|------------------15-|------------15-13-|-13-12----------12-----------------|
G|---------------------|------------------|-------14-12-14----14-14--14-12-14-|
D|---------------------|------------------|-----------------------------------|
A|---------------------|------------------|-----------------------------------|
E|---------------------|------------------|-----------------------------------|X4


-------------------------------------------
02:44
HEAVY GUITAR
*************
   A D  D   A D   F          G          A          D     A D   D   A D
e|--------------|--------------------------------------------|---------|
B|--------------|--------------------------------------------|---------|
G|---7--7-----7-|----------------------------------7-7-7---7-|-7-----7-|
D|-7-7--7---7-7-|-3-3-3-3-3--5-5-5-5-5--7-7-7-7-7--7-7-7-7-7-|-7---7-7-|
A|-7-5--5---7-5-|-3-3-3-3-3--5-5-5-5-5--7-7-7-7-7--5-5-5-7-5-|-5---7-5-|
E|-5--------5---|-1-1-1-1-1--3-3-3-3-3--5-5-5-5-5--------5---|-----5---|
 
   F          G          A          D  A D
e|-----------------------------------------|
B|-----------------------------------------|
G|----------------------------------7----7-|
D|-3-3-3-3-3--5-5-5-5-5--7-7-7-7-7--7--7-7-|
A|-3-3-3-3-3--5-5-5-5-5--7-7-7-7-7--5--7-5-|
E|-1-1-1-1-1--3-3-3-3-3--5-5-5-5-5-----5---|


-------------------------------------------
VERSE 1
********
   D        C        D        C        D        C        F    G    A    D  A
e|--------|--------|--------|--------|--------|--------|---------------------|\
B|--------|--------|--------|--------|--------|--------|---------------------| \
G|-7--7-7-|-5--5-5-|-7--7-7-|-5--5-5-|-7--7-7-|-5--5-5-|----------------7----|  \
D|-7--7-7-|-5--5-5-|-7--7-7-|-5--5-5-|-7--7-7-|-5--5-5-|-3-3--5-5--7-7--7--7-|  /X4
A|-5--5-5-|-3--3-3-|-5--5-5-|-3--3-3-|-5--5-5-|-3--3-3-|-3-3--5-5--7-7--5--7-| /
E|--------|--------|--------|--------|--------|--------|-1-1--3-3--5-5-----5-|/ 


ENJOY.......
Добавлено: 07.10.2015
Другие материалы по этой песне:
  • Аккорды и текст

Страница создана 07.10.2015
http://primanota.ru/gandalfs-fist/untrodden-ways-chords.htm
Привет, Гость.
Предлагаем пройти революционный курс по гитаре.
Подарок от PrimaNota.Ru, забирай!