PrimaNota.ru - самый крупный в мире бесплатный архив песенных текстов, аккордов, табулатур и нот


Gandalfs Fist - There And Back Again - аккорды и текст, видео

Регистрация Запомнить меня
Войти через:  Facebook Google Twitter Vk Yandex Mail.ru

Gandalfs Fist - There And Back Again - аккорды и текст, видео

Печатать
Просмотров: 114
There And Back Again
Gandalfs Fist
-----------------------------------------------------------------------------
                                          Artist - Gandalf's Fist
                                         *************************
                                        Song - There And Back Again 
                                       *****************************
                                   Album - From Point Of Existance (2012) 
                                  ****************************************
                                            Tabbed By - Ayreon77
                                           **********************
-----------------------------------------------------------------------------
Tuning = Standard


------------------------------
VERSE 1 - Pick
********
  Picking for VERSE 1
   G                 Cadd9             A7sus4            D      h p       
e|-3---------------|-3---------------|-3---------------|-2-2-2-2-3-2-------|
B|-3-------3-------|-3-------3-------|-3-------3-------|-3-----------3---3-|
G|-0-----0---0---0-|-0-----0---0-----|-2-----2---2---2-|-2-------------2---|
D|-0---0-----------|-2---2-----------|-2---2-------2---|-0-----------------|
A|-2-2---------2---|-3-3---------3-2-|-0-3-------------|-------------------|
E|-3---------------|-----------------|-----------------|-------------------|X2

         G 
Will you tell me,
         Cadd9
Will you tell me what you think,
              A7sus4
Now it sounds crazy,
      D
But i heard it in my dreams
                G
Broke down this morning
            Cadd9
Thought I'd missed this long ago
               A7sus4
But still this longing
            D
To take the journey seems to grow


------------------------------
CHORUS - Strum
*******
               G                 Cadd9
Don't wanna be there - not going back again
        A7sus4                      D              Dsus
Got the wind upon my back and the stars up in the sky
               G                Cadd9
Don't wanna be here - not going back again
         A7sus4
Where my thoughts are not my own
        D                           G
And the sunrise lights the way back home.


------------------------------
VERSE 2 - Strum
********
         G                   Cadd9
Careless whispers, they will float on through the air
           A7sus4               D
I'm just a drifter, I watch the wind blow through your hair
           G                 Cadd9
Heart's disarming - restless nights turn into fears
                    A7sus4                   D
Well it might sound charming, but don't know how I wound up here.


------------------------------
CHORUS - Strum
*******
               G                 Cadd9
Don't wanna be there - not going back again
        A7sus4                    D               Dsus
Got the wind upon my back and the stars up in the sky
               G                Cadd9
Don't wanna be here - not going back again
         A7sus4
Where my thoughts are not my own
        D                           G
And the sunrise lights the way back home.


------------------------------
BRIDGE - Strum
*******
Em                                A7sus4
Staring at the distance - Visions forming in my mind
        D                                     Cadd9          G
And the world will stop from turning - I will leave them all behind
Em                                   A7sus4
Standing at the crossroads - I don't know which way to turn'
          D                             Cadd9         G
There's a road that I must travel and a lesson I must learn


------------------------------
02:37
SOLO - Em A7sus4 D Cadd9 G X2     Em Cadd9 G D X4
*****
e|-----------------------------|-----------s---------|------h-------------------------|
B|-------------7--8-7--------s-|--s--7-8--8\10-8-7-8-|-7-8-7-8------------------------|
G|-9--9-7-9--9--------9--7-9-\-|-7\9-----------------|---------9--9-7-7--7---7-9-9--9-|
D|-----------------------------|---------------------|---------------------9----------|
A|-----------------------------|---------------------|--------------------------------|
E|-----------------------------|---------------------|--------------------------------|

02:51                                           
e|------10----10-12-12---10----------s---------|
B|---12----12---------------12-121212\10-8-7-7-|
G|-9-------------------------------------------|
D|---------------------------------------------|
A|---------------------------------------------|
E|---------------------------------------------|

                                       p                 p
e|------------s------s------10----10-12-10----10-|  ||-12-10----10----10-12-10----||
B|--s--7-8-8-8\10--10\12-12----12----------12----|  ||-------12----12----------12-||
G|-7\9-------------------------------------------|  ||----------------------------||
D|-----------------------------------------------|  ||----------------------------||
A|-----------------------------------------------|  ||----------------------------||
E|-----------------------------------------------|  ||----------------------------||X4

03:08                                   
e|---------------------------------|------------|-PH------------|--------------------------|
B|-12-12-12--12------10-10-10------|---s----5---|-brp-----------|------------------------s-|
G|--------------9-12----------12-9-|-12\7-7---7-|-9--7------7---|-7------7--------7-9~~-9\-|
D|---------------------------------|------------|------9--9---9-|---9-9----9-9-9-----------|
A|---------------------------------|------------|---------------|--------------------------|
E|---------------------------------|------------|---------------|--------------------------|

03:19         p          p          p          p          p          p          p          p
e|-s---15-|-19-15----|-19-15----|-19-15----|-19-15----|-20-15----|-19-15----|-19-15----|-19-15----|
B|-\17----|-------17-|-------17-|-------17-|-------17-|-------17-|-------17-|-------17-|-------17-|
G|--------|----------|----------|----------|----------|----------|----------|----------|----------|
D|--------|----------|----------|----------|----------|----------|----------|----------|----------|
A|--------|----------|----------|----------|----------|----------|----------|----------|----------|
E|--------|----------|----------|----------|----------|----------|----------|----------|----------|

03:22
e|-14-15-14-------|-14------s-|--------------|-------------|-----------------------------------------|
B|----------17-15-|----17-15\-|-s------------|-------------|-s--------------p--------------------s---|
G|----------------|-----------|-\12-11-------|-12-11-12-12-|-\11-11-12-14-12-11-------------11-11\12-|
D|----------------|-----------|--------14-14-|-------------|--------------------14-14-12-12----------|
A|----------------|-----------|--------------|-------------|-----------------------------------------|
E|----------------|-----------|--------------|-------------|-----------------------------------------|
                              |                                                                      |
                              | s                            s              p                        |
                             e|-\7--5--------|--7--5--7--7-|-\7--5--7--8---7-5-------------------s---|
                             B|--------8--8--|-------------|---------------------8--8--7--7--7--7\8--|
                             G|--------------|-------------|-----------------------------------------|
                             D|--------------|-------------|-----------------------------------------|
                             A|--------------|-------------|-----------------------------------------|
                             E|--------------|-------------|-----------------------------------------|



------------------------------
BRIDGE 2 - Strum
*********
G                            Cadd9           G
And will you hear me, as you see the morning light
            D           Cadd9               G
It's just a feeling you see the clouds roll by
            D                 Cadd9          G
You knew it all along but the darkness slips away
         D        Cadd9     G
From our point of existence today


------------------------------
VERSE 3 - Strum
********
       G              Cadd9
Do you want me - no I don't believe your lies
        A7sus4            D
Don't betray me - I don't want your reasons why
          G                 Cadd9
You're so distant, you have walked these ways before
        A7sus4            D
Now I'm resisting all the life outside my door.


------------------------------
CHORUS - Strum
*******
                G                 Cadd9
Didn't wanna be there - not going back again
        A7sus4                    D               Dsus
Got the wind upon my back and the stars up in the sky
               G                Cadd9
Don't wanna be here - not going back again
         A7sus4
Where my thoughts are not my own
        D                           G
And the sunrise lights the way back home.


------------------------------
HEAVY GUITAR OUTRO
*******************
   G           D Eb D   G           D Eb D F   G           D Eb D 
e|--------------------|----------------------|--------------------|--------------------------------|
B|--------------------|----------------------|--------------------|--------------------------------|
G|--------------------|------------------s---|--------------------|--------------------------------|
D|-----------6-7-8--7-|-----------6-7-8-8\10-|-----------6-7-8--7-|-----------6-7-8--7-8-10-10-----|
A|-5--5-5-5--4-5-6--5-|-5--5-5-5--4-5-6-6\8--|-5--5-5-5--4-5-6--5-|-5--5-5-5--4-5-6--5-6-8--8--8-7-|
E|-3--3-3-3-----------|-3--3-3-3-------------|-3--3-3-3-----------|-3--3-3-3-------------------6-5-|



ENJOY.......
Добавлено: 07.10.2015
Вам также может быть интересно:
Другие материалы по этой песне:
  • Аккорды и текст

Страница создана 07.10.2015
http://primanota.ru/gandalfs-fist/there-and-back-again-chords.htm
Привет, Гость.
Предлагаем пройти революционный курс по гитаре.
Подарок от PrimaNota.Ru, забирай!