PrimaNota.ru - самый крупный в мире бесплатный архив песенных текстов, аккордов, табулатур и нот


Gandalfs Fist - The Circus In The Clearing - аккорды и текст, видео

Регистрация Запомнить меня
Войти через:  Facebook Google Twitter Vk Yandex Mail.ru

Gandalfs Fist - The Circus In The Clearing - аккорды и текст, видео

Печатать
Просмотров: 85
The Circus In The Clearing
Gandalfs Fist
-----------------------------------------------------------------------------
                                          Artist - Gandalf's Fist
                                         *************************
                                     Song - The Circus In The Clearing  
                                    ***********************************
                                      Album - A Forest Of Fey (2014) 
                                     ********************************
                                           Tabbed By - Ayreon77
                                          **********************
-----------------------------------------------------------------------------
Tuning = Standard

Use All Barred Chords

ORGAN INTRO
************
C#m A F# G#m A B X2

  A       B
e|-------|-------|
B|-------|-------|
G|-------|-------|
D|-----7-|-----9-|
A|---7---|---9---|
E|-5-----|-7-----|


---------------------------------
VERSE 1
********
C#m                    A
Time moves slow as you watch through the trees
G#m       F#
Where the woodsmen and the jackals
     G#m           A    B
Make songs for the queen
    C#m                 A
Now paths appear as the jester lights the lamps
G#m   F#
Goes dancing through the darkness
         G#m              A    B
With the moonlight in his hands
    C#m                     A
And will you stray from the borders to the fields
G#m  F#                                  G#m           A    B
Play riddles with the night-born as they huddle in the leaves
    C#m               A
And as you sleep, the clocks begin to stop
G#m F#                          G#m            A   B
The seasons never change in the kingdom of the lost 


---------------------------------
WEIRD BREAK
*************
C#m A     D A E D 
---------------------------------
SYNTH
******
HEAVY GUITAR
02:40
G#m C#m    C#m    G#m C#m     C#m 

E Eb C#m G#m C#m.......

B C#m   A G#m  C#m.....

E B D#m G#m

E Eb C#m


---------------------------------
03:12
SMALL SOLO
***********                                   p
e|--------------------4-----|--------------4-5-4------4-7---|--------------------4-----|
B|----5-----5-----5-7---7-5-|----5-----5-7-------7--7-------|----5-----5-----5-7---7-5-|
G|-6-----6-----6------------|-6-----6---------------------6-|-6-----6-----6------------|
D|--------------------------|-------------------------------|--------------------------|
A|--------------------------|-------------------------------|--------------------------|
E|--------------------------|-------------------------------|--------------------------|


e|-7-5-4---4-7-|-------|-------|--------------|
B|-------7-----|-5-4---|-------|--------------|
G|-------------|-----6-|-6-4-6-|-4-6----------|
D|-------------|-------|-------|-----7--9--11-|
A|-------------|-------|-------|--------------|
E|-------------|-------|-------|--------------|


---------------------------------
VERSE 2
******** 
C#m                      A
Take my hand through the garden of blue weed
G#m      F#
Glowing, swaying in the night
           G#m             A    B
Leaves you chocking on the breeze
    C#m
The clock tower above you
       A
Chimes six bells for the sun
G#m    F#
As the blind witch of the forest 
          G#m             A   B
Plays her fiddle just for fun
        C#m                  A
Now you try to return by the pathway through the trees
G#m     F#
But the lamplights start to go out
       G#m              A   B
As the jester takes his leave
       G#m                    A
As you dance on the water the piper plays his song
G#m      F#                      G#m          A   B
Were you ever seen again now the carnival has gone?


C#m



ENJOY...........
Добавлено: 07.10.2015
Другие материалы по этой песне:
  • Аккорды и текст

Страница создана 07.10.2015
http://primanota.ru/gandalfs-fist/circus-in-clearing-chords.htm
Привет, Гость.
Предлагаем пройти революционный курс по гитаре.
Подарок от PrimaNota.Ru, забирай!