PrimaNota.ru - самый крупный в мире бесплатный архив песенных текстов, аккордов, табулатур и нот


Gandalfs Fist - Childhood Ghosts - таба, видео

Регистрация Запомнить меня
Войти через:  Facebook Google Twitter Vk Yandex Mail.ru

Gandalfs Fist - Childhood Ghosts - таба, видео

Печатать
Просмотров: 85
Уроки эстрадного вокала в Санкт-Петербурге
---------------------------------------------------------------------------------------------------
                                          Artist - Gandalf's Fist
                                         *************************
                                          Song - Childhood Ghosts
                                         *************************
                                          Album - A Forest Of Fey   
                                         *************************
                                           Tabbed By - Ayreon77
                                          **********************
---------------------------------------------------------------------------------------------------
Tuning = Standard

I think there is a guitar doing notes, anybody interested in them, Let me know and i,ll add them.


This is the picking through the singing words
 Open my eyes.......                         The way I'm...    a time for....
  Am                                         F                  G
e|--------0---------1-|-------0-------0---0-|-----0------------|-3----3------------3-|
B|----------1---------|---------------------|-1-1---1---1----1-|-3------3----------3-|
G|-----2------2---2---|-----2---2---2---2---|-2-2-----2-2----2-|-0--0-----0--------0-|
D|---2----------2-----|---2-------2---------|-3-3-------3--3-3-|-0---------------0-0-|
A|-0------------------|-0-------------------|-3---------3------|-2-------------2-----|
E|--------------------|---------------------|------------------|-3-----------3-------|

 Over the way.......                        If I start....     I don't think.....
  Am                                         F                  G
e|--------0---------0-|-----0-------0-----0-|-----0------------|-3----3----------3---|
B|----------1-------1-|-------1-------1---1-|-1-1---1---1----1-|-0------3----------3-|
G|-----2------2---2-2-|---2-------2-------2-|-2-2-----2-2----2-|-0--0-----0----------|
D|---2----------2---2-|-2-------2-------2-2-|-3-3-------3--3-3-|-0-------------------|
A|-0----------------0-|---------------------|-3---------3------|-2-------------2-----|
E|--------------------|---------------------|------------------|-3-----------3-------|

 Stay,                Stay           Oh the light,      it never stays
  Am                                        F                    G
e|-------0---------0-|-------0-------0---0-|-------0-----0----0-|-3-3-------3-----3--|
B|---------1-------1-|---------------------|-----1---1---1--1---|-3---3---------3----|
G|-----2-----2---2-2-|-----2---2---2---2---|---2-------2-2------|-0-------0---0------|
D|---2---------2---2-|---2-------2---------|-3-----------3------|-0-----0------------|
A|-0-----------------|-0-------------------|--------------------|-2------------------|
E|-------------------|---------------------|--------------------|-3------------------|

 Stay,                Stay         Oh the light,        never stayed         Stayed away 
  Am                                      F                   G                     Am
e|-------0---------0-|-------0---------0-|-0-0--------0------|-------3-----------3-|-0-|
B|---------1-------1-|---------1-------1-|-1----------1----1-|---------3-------3---|-1-|
G|-----2-----2---2-2-|-----2-----2---2-2-|-2---2---2--2----2-|-----0---------0-----|-2-|
D|---2---------2---2-|---2---------2---2-|-3-----3----3--3-3-|---0---------0-------|-2-|
A|-0-----------------|-0-----------------|-3-----------------|-----------2---------|-0-|
E|-------------------|-------------------|-------------------|-3-------------------|---|

01:04
WORDS
******
Am
Open my eyes, I see what I want to see
F                      G
The way I'm feeling; a time for childhood ghosts
Am
Over the way the light shapes our everydays
F                 G
If I start crying I don't think I'll know
Am
Stay, Stay
       F               G
Oh the light, it never stays
Am
Stay, Stay
       F            G
Oh the light, never stayed
Am
Stayed away


http://www.progarchives.com/artist.asp?id=6653


ENJOY........
Добавлено: 21.07.2015
Другие материалы по этой песне:
  • Аккорды и текст

Страница создана 21.07.2015
http://primanota.ru/gandalfs-fist/childhood-ghosts-chords.htm
Привет, Гость.
Предлагаем пройти революционный курс по гитаре.
Подарок от PrimaNota.Ru, забирай!