PrimaNota.ru - самый крупный в мире бесплатный архив песенных текстов, аккордов, табулатур и нот


Gandalf - Tiffany Rings - бас-таба, видео

Регистрация Запомнить меня
Войти через:  Facebook Google Twitter Vk Yandex Mail.ru

Gandalf - Tiffany Rings - бас-таба, видео

Печатать
Просмотров: 26
Tabbed by: 6METAL6BASSIST6
E-mail: petergriffinav@gmail.com

Tuning: EADG

G|----------------------------------------------------------------|
D|--------------------------------------------11--------------9---|
A|5-----------5---7-----------7---9---------------7---------------|
E|----------------------------------------------------------------|

G|----------------------------------------------------------------|
D|----------------------------------------------------------------|
A|5-----------5-------------------5-------------------------------|
E|----------------5---5---5---------------------------------------|

0:11

G|----------------------------------------------------------------|.
D|----------------------------------------------------------------|.
A|5-----------5-----------------------------------2-------4-------|.
E|----------------5-----------5---3-----------3-------------------|.
                                                                   .
G|----------------------------------------------------------------|.
D|----------------------------------------------------------------|.
A|5-----------5-----------------------------------4-----------4---|.
E|----------------3-----------3---2-----------2-------------------|.
                                                                   . x2
G|----------------------------------------------------------------|.
D|----------------------------------------------------------------|.
A|5-----------5---------------------------------------------------|.
E|----------------5-----------5---3-----------3---2---------------|.
                                                                   .
G|----------------------------------------------------------------|.
D|----------------9---------------7-------------------------------|.
A|7-----------7-----------------------------------7---------------|.
E|------------------------0-------------------5-------------------|.

0:52

G|----------------------------------------------------------------|
D|------------7---------------2---5-------4---2---4---------------|
A|5-------4---------------4-------------------------------5-------|
E|---------------5------------------------------------------------|

G|----------------------------------------------------------------|
D|----------------------------------------------------------------|
A|2-----------2---4-----------4---5-------4-------2-----------2---|
E|----------------------------------------------------------------|

G|------------------------------------------------|
D|--------------------------------7---------------|
A|5-----------5-----------------------------------|
E|----------------5-----------5-------------------|

1:07

G|----------------------------------------------------------------|
D|--------------------------------------------11--------------9---|
A|5-----------5---7-----------7---9---------------7---------------|
E|----------------------------------------------------------------|

G|----------------------------------------------------------------|
D|----------------------------------------------------------------|
A|5-----------5-------------------5-------------------------------|
E|----------------5-------5---------------------------------------|

1:17

G|----------------------------------------------------------------|
D|----------------------------------------------------------------|
A|5-----------5-----------------------------------2-------4-------|
E|----------------5-----------5---3-----------3-------------------|

G|----------------------------------------------------------------|
D|----------------------------------------------------------------|
A|5-----------5-----------------------------------4-----------4---|
E|----------------3-----------3---2-----------2-------------------|

G|----------------------------------------------------------------|
D|----------------------------------------------------------------|
A|5-----------5---------------------------------------------------|
E|----------------5-----------5---3-----------3---2---------------|

G|----------------------------------------------------------------|
D|----------------9-------9---------------------------------------|
A|7-----------7-------------------5-----------5-------------------|
E|------------------------------------------------5-------5-------|

G|----------------------------------------------------------------|
D|----------------------------------------------------------------|
A|------------5-------------------5-----------5-------------------|
E|5---------------5-------5-----------------------5-------5-------|

G|--------------------------------|
D|--------------------------------|
A|5-------------------------------|
E|--------------------------------|
Добавлено: 10.06.2016
Другие материалы по этой песне:
  • Аккорды и текст

Страница создана 10.06.2016
http://primanota.ru/gandalf/tiffany-rings-chords.htm
Привет, Гость.
Предлагаем пройти революционный курс по гитаре.
Подарок от PrimaNota.Ru, забирай!