PrimaNota.ru - самый крупный в мире бесплатный архив песенных текстов, аккордов, табулатур и нот


Gandalf - Hang On To A Dream - бас-таба, видео

Регистрация Запомнить меня
Войти через:  Facebook Google Twitter Vk Yandex Mail.ru

Gandalf - Hang On To A Dream - бас-таба, видео

Печатать
Просмотров: 31
Tabbed by: 6METAL6BASSIST6
E-mail: petergriffinav@gmail.com

Tuning EADG

G|---|
D|---|
A|10-|
E|---|

0:10

G|------------------12----------------------------------12----------------|
D|10----------------------------------10----------------------------------|
A|----------------------------------10----------------------------------8-|
E|------------------------------------------------------------------------|

G|------------------10----------------------------------10----------------|
D|8-----------------------------------8-----------------------------------|
A|----------------------------------8-----------------------------------6-|
E|------------------------------------------------------------------------|

G|------------------8-----------------------------------8-----------------|
D|6-----------------------------------6-----------------------------------|
A|----------------------------------6-----------------------------------5-|
E|------------------------------------------------------------------------|

G|------------------7-----------------------------------7-----------------|
D|5-----------------------------------5-----------------------------------|
A|----------------------------------5-----------------------------------10|
E|------------------------------------------------------------------------|

0:28

G|------------------12----------------------------------12----------------|
D|10----------------------------------10----------------------------------|
A|----------------------------------10----------------------------------8-|
E|------------------------------------------------------------------------|

G|------------------10----------------------------------10----------------|
D|8-----------------------------------8-----------------------------------|
A|----------------------------------8-----------------------------------6-|
E|------------------------------------------------------------------------|

G|------------------8-----------------------------------8-----------------|
D|6-----------------------------------6-----------------------------------|
A|----------------------------------6-----------------------------------5-|
E|------------------------------------------------------------------------|

G|------------------7-----------------------------------7-----------------|
D|5-----------------------------------5-----------------------------------|
A|----------------------------------5-----------------------------------3-|
E|------------------------------------------------------------------------|

G|------------------5-----------------------------------5-----------------|
D|3-----------------------------------3-----------------------------------|
A|----------------------------------3-----------------------------------8-|
E|------------------------------------------------------------------------|

G|------------------10----------------------------------10----------------|
D|8-----------------------------------8-----------------------------------|
A|----------------------------------8-----------------------------------10|
E|------------------------------------------------------------------------|

0:57

G|------------------12----------------------------------12----------------|
D|10----------------------------------10----------------------------------|
A|----------------------------------10----------------------------------8-|
E|------------------------------------------------------------------------|

G|------------------10----------------------------------10----------------|
D|8-----------------------------------8-----------------------------------|
A|----------------------------------8-----------------------------------6-|
E|------------------------------------------------------------------------|

G|------------------8-----------------------------------8-----------------|
D|6-----------------------------------6-----------------------------------|
A|----------------------------------6-----------------------------------5-|
E|------------------------------------------------------------------------|

G|------------------7-----------------------------------------------------|
D|5-----------------------------------5-----------------------------------|
A|----------------------------------5-----------------------------------3-|
E|------------------------------------------------------------------------|

G|------------------5-----------------------------------5-----------------|
D|3-----------------------------------3-----------------------------------|
A|----------------------------------3-----------------------------------5-|
E|------------------------------------------------------------------------|

G|------------------7-----------------------------------7-----------------|
D|5-----------------------------------5-----------------------------------|
A|----------------------------------5-----------------------------------6-|
E|------------------------------------------------------------------------|

1:25

G|------------------------------------------------------------------------------------------------|
D|6-----6-----6-----6-----8-----8-----8-----8-----10----10----10----10----10---10--8------7-6-----|
A|----------------------8-----------------------10------------------------------------------------|
E|------------------------------------------------------------------------------------------------|

G|------------------------------------------------------------------------------------------------|
D|6-----6-----6-----6-----8-----8-----8-----8-----10----------------------------------------------|
A|----------------------8-----------------------10----------------------------------------------10|
E|------------------------------------------------------------------------------------------------|

1:41

G|------------------12----------------------------------12----------------|
D|10----------------------------------10----------------------------------|
A|----------------------------------10----------------------------------8-|
E|------------------------------------------------------------------------|

G|------------------10----------------------------------10----------------|
D|8-----------------------------------8-----------------------------------|
A|----------------------------------8-----------------------------------6-|
E|------------------------------------------------------------------------|

G|------------------8-----------------------------------8-----------------|
D|6-----------------------------------6-----------------------------------|
A|----------------------------------6-----------------------------------5-|
E|------------------------------------------------------------------------|

G|------------------7-----------------------------------7-----------------|
D|5-----------------------------------5-----------------------------------|
A|----------------------------------5-----------------------------------3-|
E|------------------------------------------------------------------------|

G|------------------5-----------------------------------5-----------------|
D|3-----------------------------------3-----------------------------------|
A|----------------------------------3-----------------------------------8-|
E|------------------------------------------------------------------------|

G|------------------10----------------------------------10----------------|
D|8-----------------------------------8-----------------------------------|
A|----------------------------------8-----------------------------------10|
E|------------------------------------------------------------------------|

2:09

G|------------------12----------------------------------12----------------|
D|10----------------------------------10----------------------------------|
A|----------------------------------10----------------------------------8-|
E|------------------------------------------------------------------------|

G|------------------10----------------------------------10----------------|
D|8-----------------------------------8-----------------------------------|
A|----------------------------------8-----------------------------------6-|
E|------------------------------------------------------------------------|

G|------------------8-----------------------------------8-----------------|
D|6-----------------------------------6-----------------------------------|
A|----------------------------------6-----------------------------------5-|
E|------------------------------------------------------------------------|

G|------------------7-----------------------------------------------------|
D|5-----------------------------------5-----------------------------------|
A|----------------------------------5-----------------------------------3-|
E|------------------------------------------------------------------------|

G|------------------5-----------------------------------5-----------------|
D|3-----------------------------------3-----------------------------------|
A|----------------------------------3-----------------------------------5-|
E|------------------------------------------------------------------------|

G|------------------7-----------------------------------7-----------------|
D|5-----------------------------------5-----------------------------------|
A|----------------------------------5-----------------------------------6-|
E|------------------------------------------------------------------------|

2:38

G|------------------------------------------------------------------------------------------------|
D|6-----6-----6-----6-----8-----8-----8-----8-----10----10----10----10----10---10--10-----9-8---7-|
A|----------------------8-----------------------10------------------------------------------------|
E|------------------------------------------------------------------------------------------------|

G|------------------------------------------------------------------------------------------------|
D|6-----6-----6-----6-----8-----8-----8-----8-----10----------------------------------------------|
A|----------------------8-----------------------10----------------------------------------------6-|
E|------------------------------------------------------------------------------------------------|

G|------------------------------------------------------------------------------------------------|
D|6-----6-----6-----6-----8-----8-----8-----8-----10----------------------------------------------|
A|----------------------8-----------------------10----------------------------------------------10|
E|------------------------------------------------------------------------------------------------|

3:00

G|------------------------------------------------------------------------------------------------|
D|10----10----10----10----8-----8-----8-----8-----6-----6-----6-----6-----5-----5-----5-----5-----|
A|----------------------8-----------------------6-----------------6-----6-------------------------|
E|------------------------------------------------------------------------------------------------|

G|------------------------3-----3-----3-----3-----5-----5-----5-----5-----3-----3-----3----3------|
D|3-----3-----3-----3---3-----------------------5-----------------5-----5-----------------------3-|
A|------------------------------------------------------------------------------------------------|
E|------------------------------------------------------------------------------------------------|

G|------------------------------------------------------------------------------------------------|
D|6-----6-----6-----6-----5-----5-----5-----5-----3-----3-----3-----3-----5-----5-----5-----5-----|
A|----------------------6---------5-5-----5-----------------------------5-------------------------|
E|------------------------------------------------------------------------------------------------|

3:23

G|------------------------------------------------------12--------------------12----------------------|
D|6-----6-----6-----6-----8-----8-----8-----8-----10----------10----------10----------10/12--10-8---7-|
A|----------------------8-------------------------------------------10--------------------------------|
E|----------------------------------------------------------------------------------------------------|

G|------------------------------------------------------------------------------------------------|
D|6-----6-----6-----6-----8-----8-----8-----8-----10--------------------------------------6/8---5-|
A|----------------------8-----------------------10------------------------------------------------|
E|------------------------------------------------------------------------------------------------|

G|----------------------------------------------------------------------------------------------------|
D|6-----6-----6-----6-----8-----8-----8-----8-----10----10----10----10--10-------10-10--10-8---7-6----|
A|----------6-----6-----8-----------8-----8-----------------10----------------------------------------|
E|----------------------------------------------------------------------------------------------------| x2
                                                                                                        to
G|------------------------------------------------------------------------------------------------|  fadeout.
D|6-----6-----6-----6-----8-----8-----8-----8-----10--------------------------------------6/8---5-|
A|----------------------8-----------------------10------------------------------------------------|
E|------------------------------------------------------------------------------------------------|
Добавлено: 10.06.2016
Вам также может быть интересно:
Другие материалы по этой песне:
  • Аккорды и текст

Страница создана 10.06.2016
http://primanota.ru/gandalf/hang-on-to-a-dream-chords.htm
Привет, Гость.
Предлагаем пройти революционный курс по гитаре.
Подарок от PrimaNota.Ru, забирай!