PrimaNota.ru - самый крупный в мире бесплатный архив песенных текстов, аккордов, табулатур и нот


Gandalf Murphy And The Slambovian Circus Of Dreams - Baby Jane - таба, видео

Регистрация Запомнить меня
Войти через:  Facebook Google Twitter Vk Yandex Mail.ru

Gandalf Murphy And The Slambovian Circus Of Dreams - Baby Jane - таба, видео

Печатать
Просмотров: 87
Song Title: Baby Jane   
Band: Gandalf Murphy and the Slambovian Circus of Dreams
Band Members: Joziah Longo, Tink Lloyd, Sharkey McEwen, Tony Zuzulo
Album: Flapjacks from the Sky (2004)
Band Website: www.slambovia.com

This tab is the author's own work and represents his / her 
interpretation of the song.  

Tabbed by: Alex Dunckle  adeagle18@stny.rr.com
Tuning: (D  G  C  F  A  D)

Intro / verse part 1:
     There are things they try to sell...
D|-----------------------------------------------------||
A|----8----8-----3-----3------5-----5-----5----5-------||
F|------0----0-----0-----0------0-----0-----0----0-----||
C|-----------------------------------------------------||
G|--7----0-----2-----2-----3------3-----3----3---------||
D|-----------------------------------------------------||

Verse Part 2:
   We spend so much time just surviving...
D|-----------------------------------------------------||
A|-8----8------10----10-----15----15----10----10-------||
F|---0-----0------0-----0------0-----0-----0-----0-----||
C|-----------------------------------------------------||
G|7----7------9-----9-----14----14-----9-----9---------||
D|-----------------------------------------------------||

Chorus:
D|-----------------------------------------------------||
A|---1-----1------0-----0------1p0-0-------1p0-0-------||
F|-----0------0-----0-----0-----------0----------0-----||
C|-----------------------------------------------------||
G|-0-----0------2-----2------0----------0--------------||
C|-----------------------------------------------------||

Chorus part 2 x 2:
D|-----------------------------------------------------||
A|----1------1-----0-----0-----1p0-0-----1p0-0---------||
F|------0------0-----0-----0---------0---------0-------||
C|-----------------------------------------------------||
G|--3------3-----2------2-----0---------0--------------||
C|-----------------------------------------------------||

Ending of chorus:
D|----------------------------||
A|---1----1-----1----1----1---||
F|-----0----0-----0---0---0---||
C|------------------------2---||
G|-3-----3-----3----3-----3---||
D|----------------------------||

Solo 1 (right after chorus):
D|-----------------------------------------------------------------------||
A|--5-7-8-9--7h8p5----------88-7-------------------------8-7-8-7-8-7-8-7-||
F|-------------------------------7-----7-5-4-----------7-----------------||
C|-------------------5h7/9-----------9-------7-5---7h9-------------------||
G|-----------------------------------------------------------------------||
D|-----------------------------------------------------------------------||

D|-----------------------------------------------------------------------||
A|---7-8-10--8-7-8-10--8-7-8-7-8-7-8-7-----------------------------------||
F|-4---------------------------------------------------------------------||
G|-----------------------------------------------------------------------||
D|-----------------------------------------------------------------------||


Solo 2 (right after solo 1 after the 2nd chorus)
D|-----------------------------------------------------------------------||
A|-----------------------------------------------------------------------||
F|-----------------------------------------------------------7h9--7h9-11-||
C|-16-16-16p14-12-12--12-12-12/10-10-9/5-2h5/7---0-2-5-/7-/9-------------||
G|-----------------------------------------------------------------------||
D|-----------------------------------------------------------------------||

D|-------------------------8-7-8-10/12-14-15--17--19~~~--17p15-14-10-12~~||
A|------------------12-10------------------------------------------------||
F|-12-7--12p11-9--7------------------------------------------------------||
C|-----------------------------------------------------------------------||
G|-----------------------------------------------------------------------||
D|-----------------------------------------------------------------------||

Добавлено: 02.05.2012
Другие материалы по этой песне:
  • Аккорды и текст

Страница создана 02.05.2012
http://primanota.ru/gandalf-murphy-and-the-slambovian-circus-of-dreams/baby-jane-chords.htm
Привет, Гость.
Предлагаем пройти революционный курс по гитаре.
Подарок от PrimaNota.Ru, забирай!