PrimaNota.ru - самый крупный в мире бесплатный архив песенных текстов, аккордов, табулатур и нот


Gandalf Murphy And The Slambovian Circus Of Dreams - Already Broken - таба, видео

Регистрация Запомнить меня
Войти через:  Facebook Google Twitter Vk Yandex Mail.ru

Gandalf Murphy And The Slambovian Circus Of Dreams - Already Broken - таба, видео

Печатать
Просмотров: 127
Song Title: Already Broken      
Band: Gandalf Murphy and the Slambovian Circus of Dreams
Members: Joziah Longo, Tink Lloyd, Sharkey McEwen, Tony Zuzulo
Album: Live at the Town Crier
Band Website: www.slambovia.com

This tab is the author's own work and represents his / her 
interpretation of the song.  

Tabbed by: Alex Dunckle  adeagle18@stny.rr.com
Tuning: (D  G  C  F  A  D)


Intro + Verse Part 1:
D|----------------------------------------------------||
A|-0-----0----0--------0------0------0-----0----------||
F|---2-----2-----2--------2------4-----4------4-------||
C|-----5------------5--------------5------------5-----||
G|----------------------------7------------7----------||
D|-3----------3---------------------------------------||

Waves of Devotion...............will appear
D|--------------------------------------------------||
A|--------------------------------------------------||
F|--------0---------0----------0---------0----------||
C|----------5---------5----------4---------4--------||
G|-----7---------7----------7---------7-------------||
D|---8---------8----------7---------7---------------||


after will appear...leads into chorus:
D|---------------------------------||
A|---------------------------------||
F|--------0---------0--------------||
C|----------2---------2------------||
G|------5---------5----------------||
D|--5---------5--------------------||

Chorus:
A lot of the chorus is improv on the chords below. 

Between Lines of the chorus:
D|----------------||
A|----------------||
F|---5-4----------||
C|--------5p2-----||
G|----------------||
D|----------------||

F
I...I don't mind

F
If you treat..me unkind

Cause in a way
x2 Dm
D|----------------||
A|----------------||
F|----------------||
C|-2-0h2----------||
G|-2---2----------||
D|-0---0----------||

We've been blind

F
So I don't mind...

Chords over the acordian solo:
Dm - F - Dm - C 

Acordian Solo:
D|--------------------------------------------------------------------||
A|--8-7--5-7/8-5-7/8--5--3-3-----5--3-3------8-7--5-7-8--5-7-8--12-12-||
F|----------------------------0----------0----------------------------||
C|--------------------------------------------------------------------||
G|--------------------------------------------------------------------||
D|--------------------------------------------------------------------||

D|-----------------------------||
A|--10-10-10-8-8-8--7-5-3------||
F|-----------------------------||
C|-----------------------------||
G|-----------------------------||
D|-----------------------------||


Guitar Solo:
D|-------------------------------------------------------------------||
A|--8--8-7--7-5--5-5-7-8--8-8--10-10-10---5--5-5-7-8--8-7--7-5--5-5--||
F|-------------------------------------------------------------------||
C|-------------------------------------------------------------------||
G|-------------------------------------------------------------------||
D|-------------------------------------------------------------------||


D|-0-----------------------------------------------------------------||
A|-0-----------------------------------------------------------------||
F|-0-------------------------9--11-12b-11b--7-9-11-12b-11---7-9-11-12||
C|-2---2-4---5 5/7-7-7-7/9-9-----------------------------------------||
G|-2-----------------------------------------------------------------||
D|-0-----------------------------------------------------------------||

D|---------------12~~~~  -------------------------||
A|--b12b------------------------------------------||
F|--------12-9------------------------------------||
C|------------------------------------------------||
G|------------------------------------------------||
D|------------------------------------------------||
Добавлено: 25.02.2012
Другие материалы по этой песне:
  • Аккорды и текст

Страница создана 25.02.2012
http://primanota.ru/gandalf-murphy-and-the-slambovian-circus-of-dreams/already-broken-chords.htm
Привет, Гость.
Предлагаем пройти революционный курс по гитаре.
Подарок от PrimaNota.Ru, забирай!