PrimaNota.ru - самый крупный в мире бесплатный архив песенных текстов, аккордов, табулатур и нот


Gamma Ray - Your Turn Is Over - текст песни, таба, бас-таба, видео

Регистрация Запомнить меня
Войти через:  Facebook Google Twitter Vk Yandex Mail.ru

Gamma Ray - Your Turn Is Over - текст песни, таба, бас-таба, видео

Печатать
Просмотров: 109
 Your TØrn Is Over                                 


                                                                       Gamma Ray
Kai



     S S S S S S S S S S S S S S S S    S S S S S S S S S S S S S S S S  
E||--3-0-0-2-0-0-3-0-6-0-0-3-0-0-2-0-|--3-0-0-2-0-0-3-0-6-0-0-3-0-0-2-0-|
B||----------------------------------|----------------------------------|
G||----------------------------------|----------------------------------|
D||----------------------------------|----------------------------------|
A||----------------------------------|----------------------------------|
E||----------------------------------|----------------------------------|


  S S S S S S S S S S S S S S S S    S S S S S S S S S S S S S S S S  
--3-0-0-2-0-0-3-0-6-0-0-3-0-0-2-0-|--3-0-0-2-0-0-3-0-6-0-0-3-0-0-2-0-|
----------------------------------|----------------------------------|
----------------------------------|----------------------------------|
----------------------------------|----------------------------------|
----------------------------------|----------------------------------|
----------------------------------|----------------------------------|


  S S S S S S S S S S S S S S S S    S S S S S S S S S S S S S S S S  
--3-0-0-2-0-0-3-0-6-0-0-3-0-0-2-0-|--3-0-0-2-0-0-3-0-6-0-0-3-0-0-2-0-|
----------------------------------|----------------------------------|
----------------------------------|----------------------------------|
----------------------------------|----------------------------------|
----------------------------------|----------------------------------|
----------------------------------|----------------------------------|


  S S S S S S S S S S S S S S S S    S S S S S S S S S S S S S S S S  
--3-0-0-2-0-0-3-0-6-0-0-3-0-0-2-0-|--3-0-0-2-0-0-3-0-6-0-0-3-0-0-2-0-|
----------------------------------|----------------------------------|
----------------------------------|----------------------------------|
----------------------------------|----------------------------------|
----------------------------------|----------------------------------|
----------------------------------|----------------------------------|


  S S S S S S S S S S S S S S S S    S S S S S S S S S S S S S S S S  
--3-0-0-2-0-0-3-0-6-0-0-3-0-0-2-0-|--3-0-0-2-0-0-3-0-6-0-0-3-0-0-2-0-|
----------------------------------|----------------------------------|
----------------------------------|----------------------------------|
----------------------------------|----------------------------------|
----------------------------------|----------------------------------|
----------------------------------|----------------------------------|


  S S S S S S S S S S S S S S S S    S S S S S S S S S S S S S S S S  
--3-0-0-2-0-0-3-0-6-0-0-3-0-0-2-0-|--3-0-0-2-0-0-3-0-6-0-0-3-0-0-2-0-|
----------------------------------|----------------------------------|
----------------------------------|----------------------------------|
----------------------------------|----------------------------------|
----------------------------------|----------------------------------|
----------------------------------|----------------------------------|


  S S S S S S S S S S S S S S S S    S S S S S S S S E  E  Q     
--3-0-0-2-0-0-3-0-6-0-0-3-0-0-2-0-|--3-0-0-2-0-0-3--------------|
----------------------------------|-----------------------------|
----------------------------------|---------------------0--2----|
----------------------------------|---------------------0--2----|
----------------------------------|-----------------------------|
----------------------------------|-----------------------------|


              |---3---|                 |---3---|                              
  E  E  E  E  E   E   E     E  E  E  E  E   E   E     E  E  E  E  E  E  E  E   
-------------------------|-------------------------|--------------------------|
-------------------------|-------------------------|--------------------------|
-------------------------|-------------------------|--------------------------|
--9-----9----------------|--9-----9----------------|-----------9-----9-----9--|
--7-----7-----0h--2h--5--|--7-----7-----0h--2h--5--|--7--5-----7-----7-----7--|
-------------------------|-------------------------|--------7-----------------|


                                         |---3---|                 |---3---|   
  E  E  E  E  E  E  E  E     E  E  E  E  E   E   E     E  E  E  E  E   E   E   
--------------------------|-------------------------|-------------------------|
--------------------------|-------------------------|-------------------------|
--------------------------|-------------------------|-------------------------|
-----5-----5--4--4--------|--9-----9----------------|--9-----9----------------|
--------7-----------5--2--|--7-----7-----0h--2h--5--|--7-----7-----0h--2h--5--|
--------------------------|-------------------------|-------------------------|


                                                        |---3---|   
  E  E  E  E  E  E  E  E     E  E  Q        E  E  E  E  E   E   E   
--------------------------|--------------|-------------------------|
--------------------------|--------------|-------------------------|
--------------------------|-----0--2-----|-------------------------|
-----------9-----9-----9--|-----0--2~----|--9-----9----------------|
--7--5-----7-----7-----7--|--------------|--7-----7-----0h--2h--5--|
--------7-----------------|--------------|-------------------------|


              |---3---|                                                         
  E  E  E  E  E   E   E     E  E  E  E  E  E  E  E     E  E  E  E  E  E  E  E   
-------------------------|--------------------------|--------------------------|
-------------------------|--------------------------|--------------------------|
-------------------------|--------------------------|--------------------------|
--9-----9----------------|-----------9-----9-----9--|-----5-----5--4-----------|
--7-----7-----0h--2h--5--|--7--5-----7-----7-----7--|--------7--------5--2--4--|
-------------------------|--------7-----------------|-----------------------2--|


  E  E  E  E  E  E  E  E     S  S  E  E  E  S  S  E  E  S S  
--------------------------|---------------------------------|
--------------------------|---------------------------------|
--------------------------|---------------------------------|
--------------------------|--4h-5p-4--------4h-5p-4---------|
--L-----------------------|--4h-5p-4--------4h-5p-4---------|
--L--2--2--2--2--2--2--2--|-----------2--2-----------2--2-2-|


  E   E  E  E  E  E  E  E     Q    E  E  E  E  E  E   
---------------------------|-------------------------|
---------------------------|-------------------------|
---------------------------|-------------------------|
-----11-----4-----4-----2--|--4----------------------|
--x---9-----4-----4-----2--|--4----------------------|
---------------------------|-------2--2--2--2--2--2--|


  S  S  E  E  E  S  S  E  E  S S    E   E  E  E  E  E  E  S S  
---------------------------------|----------------------------|
---------------------------------|----------------------------|
---------------------------------|----------------------------|
--4h-5p-4--------4h-5p-4---------|-----11-----4-----4-----7-7-|
--4h-5p-4--------4h-5p-4---------|--x---9-----4-----4-----5-5-|
-----------2--2-----------2--2-2-|----------------------------|


    Q    E  E  E  E  E  E     Q    Q    E  E  E  E     E  E  E  E  E  E  E  E   
|--------------------------|------------------------|--------------------------|
|--------------------------|------------------------|--------------------------|
|*-------------------------|------------------------|--------------------------|
|*--7----7--------7-----7--|--7----7----7--7--------|--------------------------|
|---5----5-----x--5-----5--|--5----5----5--5--x--4--|--L-----------------------|
|--------------------------|---------------------2--|--L--2--2--2--2--2--2--2--|


  S  S  E  E  E  S  S  E  E  E     Q    E  E  E  E  E  E   
--------------------------------|-------------------------|
--------------------------------|-------------------------|
--------------------------------|-------------------------|
--4h-5p-4--------4h-5p-4-----7--|--L----7--------7-----7--|
--4h-5p-4--------4h-5p-4--x--5--|--L----5-----x--5-----5--|
-----------2--2-----------------|-------------------------|


  Q    Q    E  E  E  E     E  E  E  E  E  E  E  E   
------------------------|--------------------------|
------------------------|--------------------------|
------------------------|--------------------------|
--7----7----------------|--------------------------|
--5----5----------------|--------------------------|
------------5--3-----2--|--L--2--2--2--2--2--2--2--|


  S  S  E  E  E  S  S  E  E  E     E  E  E  E  E  E  E  E   
--------------------------------|--------------------------|
--------------------------------|--------------------------|
--------------------------------|--------------------------|
--4h-5p-4--------4h-5p-4-----7--|--L--7--7--------7-----7--|
--4h-5p-4--------4h-5p-4--x--5--|--L--5--5-----x--5-----5--|
-----------2--2-----------------|--------------------------|


  Q    Q    E  E  E   E     E  E  E  E  E  E   E   E     Q.     E  E  E  E  E   
-------------------------|----------------------------|------------------------|
-------------------------|----------------------------|------------------------|
-------------------------|----------------------------|------------------------|
--7----7----7--9-----11--|--L-----------------11--11--|--L---------------------|
--5----5----5--7------9--|--L--------4--4------9---9--|--L------4--L--4--4--4--|
-------------------------|-----0--0--2--2-------------|---------2--L--2--2--2--|


  E  E  E  E  E  E  E  E     E  E  E  E  E  E     E  E  E  E  E  E  E  E   
--------------------------|--------------------|--------------------------|
--------------------------|--------------------|--------------------------|
--------------------------|--------------------|--------------------------|
--5-----5--------------5--|-----5--------------|--5-----5--------------5--|
--3-----3-----3--3--3--3--|-----3--3--3--3--3--|--3-----3-----3--3--3--3--|
--------------------------|--------------------|--------------------------|


  E  E  E  E  E  E  E  E     E  E  E  E  E  E  E  E   
--------------------------|--------------------------|
--------------------------|--------------------------|
--------------------------|--------------------------|
-----5--------------------|--5-----5--------------5--|
-----3--3--3--3--3--3--3--|--3-----3-----3--3--3--3--|
--------------------------|--------------------------|


  E  E  E  E  E  E  E  E     W                   E  E  E  E  E  E  E  E   
--------------------------|-------------------|--------------------------|
--------------------------|-------------------|--------------------------|
--------------------------|-------------------|--------------------------|
-----5--------------------|--7----------------|-----4--4-----4--4--------|
-----3-----5--5--3-----3--|--5----------------|-----2--2-----2--2--------|
--------------------0-----|-------------------|-----------------------0--|


  Q    E  E  E  E  E  E     Q    E  E  E  E  E  E   
-------------------------|-------------------------|
-------------------------|-------------------------|
-------------------------|-------------------------|
-------------------------|-------------------------|
-------------------------|-------------------------|
--L----3-----2--------0--|--L----3-----2--0-----2--|


  E  E  E  E  S  S  E  E  S S    E   E  E  E  E  E  E  E   
------------------------------|---------------------------|
------------------------------|---------------------------|
------------------------------|---------------------------|
--------------4h-5p-4---------|-----11-----4-----4--------|
--------------4h-5p-4---------|--x---9-----4-----4--------|
--L--2--2--2-----------2--2-2-|------------------------0--|


  Q    E  E  E  E  E  E     Q    E  E  E  E  E  E   
-------------------------|-------------------------|
-------------------------|-------------------------|
-------------------------|-------------------------|
-------------------------|-------------------------|
-------------------------|-------------------------|
--L----3-----2--------0--|--L----3-----2--0-----2--|


  E  E  E  E  S  S  E  E  S S    E   E  E  E  E  E  E  S S    
------------------------------|-----------------------------||
------------------------------|-----------------------------||
------------------------------|----------------------------*||
--------------4h-5p-4---------|-----11-----4-----4-----7-7-*||
--------------4h-5p-4---------|--x---9-----4-----4-----5-5--||
--L--2--2--2-----------2--2-2-|-----------------------------||


  E   E  E  E  E  E  E  E     W                   H        Q    E  E   
---------------------------|-------------------|----------------------|
---------------------------|-------------------|----------------------|
---------------------------|-------------------|----------------------|
-----11-----4-----4--------|--9----------------|--L--------L----L--9--|
--x---9-----4-----4-----x--|--7----------------|--L--------L----L--7--|
---------------------------|-------------------|----------------------|


  W                   E  E  E  E  E  E  E  E     E  E  E  E  E  E  E  E   
-------------------|--------------------------|--------------------------|
-------------------|--------------------------|--------------------------|
-------------------|--------------------------|--------------------------|
--L----------------|--L--------------------4--|--------------------------|
--L----------------|--L--7--7--7--7--7--7--2--|--2--2--2--2--2--2--2--2--|
-------------------|--------------------------|--------------------------|


  E  E   E  E  E  E  E  E     E  E  E  E  E  E  E  E   
---------------------------|--------------------------|
---------------------------|--------------------------|
---------------------------|--------------------------|
-----5s--4--------------4--|--L-----------------------|
--2--3s--2--0--2--0--3--2--|--L--2--2--2--2--2--2--2--|
---------------------------|--------------------------|


  E  E  E  E  E  E  E  E     E  E  E  E  E  E  E  E   
--------------------------|--------------------------|
--------------------------|--------------------------|
--------------------------|--------------------------|
-----------------------4--|--L-----------------------|
--2--------------------2--|--L--2--2--2--2--2--2--2--|
-----3--2--5--5--3--2-----|--------------------------|


  E  E   E  E  E  E  E  E     E  E  E  E  E  E  E  E   
---------------------------|--------------------------|
---------------------------|--------------------------|
---------------------------|--------------------------|
-----5s--4--------------4--|--L-----------------------|
--2--3s--2--0--2--0--3--2--|--L--2--2--2--2--2--2--2--|
---------------------------|--------------------------|


  E  E  E  E  E  E  E  E     Q.     Q.     Q       W                 
--------------------------|---------------------|-------------------|
--------------------------|---------------------|-------------------|
--------------------------|---------------------|-------------------|
--------------------------|---------------------|-------------------|
--2--3--2--0--------------|--8------7------4----|--L----------------|
--------------3--2--1--0--|--6------5------2----|--L----------------|


  Q.     Q.     Q       Q    E  E  E  E  E  E      Q.     Q.     Q     
---------------------|-------------------------|----------------------|
---------------------|-------------------------|----------------------|
---------------------|-------------------------|----------------------|
---------------------|-------------------------|----------------------|
--8------7------4----|--L----x--x--x--x--x--x--|--10------9------6----|
--6------5------2----|--L----x--x--x--x--x--x--|---8------7------4----|


  Q    Q    Q    Q        W                   E   E  E  E   E  E   E  E   
----------------------|--------------------|-----------------------------|
----------------------|--------------------|-----------------------------|
----------------------|--------------------|-----------------------------|
----------------------|--------------------|-----------------------------|
--L----5----6----9----|--10----------------|--8s--7-----7s--8-----11-----|
--L----3----4----7----|---8----------------|--6s--5-----5s--6------9-----|


   E    H        Q    E      E   E  E  E  E  E   E  E   
-------------------------|-----------------------------|
-------------------------|-----------------------------|
-------------------------|-----------------------------|
-------------------------|--10s--8---------------------|
--11s--10--------L----L--|---8s--6-----8--------11-----|
---9s---8--------L----L--|-------------6-----x---9-----|


   E    H        Q    E     E   E  E  E   E  E   E  E   
-------------------------|-----------------------------|
-------------------------|-----------------------------|
-------------------------|-----------------------------|
-------------------------|-----------------------------|
--11s--10--------L----L--|--8s--7-----7s--8-----11-----|
---9s---8--------L----L--|--6s--5-----5s--6------9-----|


   E    H        Q    E      E  E  E  E   E   E   E   E   
-------------------------|-------------------------------|
-------------------------|-------------------------------|
-------------------------|-------------------------------|
-------------------------|-------------------------------|
--11s--10--------L----L--|--10-----------10--10--10--10--|
---9s---8--------L----L--|---8--8--8--8---8---8---8---8--|


  E   E  E  E  Q    Q        Q    E  Q    Q    E     E   H        Q    E   
-------------------------|------------------------|-----------------------|
-------------------------|------------------------|-----------------------|
-------------------------|------------------------|-----------------------|
-------------------------|--10--------------------|-----------------------|
--6s--5--x--5--L----5----|---8-------6----L----L--|--6s--5--------L----L--|
--4s--3--x--3--L----3----|--------x--4----L----L--|--4s--3--------L----L--|


   Q    E  E  Q    Q       E   H        Q    E      Q    E  E  Q    Q     
------------------------|-----------------------|------------------------|
------------------------|-----------------------|------------------------|
------------------------|-----------------------|------------------------|
--10----L---------------|-----------------------|--10--------------------|
---8----L--6--L----6----|--6s--5--------L----L--|---8-------6--L----6----|
-----------4--L----4----|--4s--3--------L----L--|--------x--4--L----4----|


  Q.     Q.     Q       E  Q.     Q    Q       Q    E  E  E   E  E  E   
---------------------|----------------------|--------------------------|
---------------------|----------------------|--------------------------|
---------------------|----------------------|--------------------------|
---------------------|------------7----8----|--------------------------|
--6------7------8----|--L--9------5----6----|--2--------------------2--|
--4------5------6----|--L--7----------------|--0----3-----2h--3--x--0--|


  Q    E  E  E  E  E  E     Q    E  E  E  E  E  E     Q    E  E  E  E  E  E   
-------------------------|-------------------------|-------------------------|
-------------------------|-------------------------|-------------------------|
-------------------------|-------------------------|-------------------------|
-------------------------|-------------------------|-------------------------|
--L-------------------2--|--L-------------------2--|--L-------------------4--|
--L----3-----2-----x--0--|--L----3-----2-----x--0--|--L----3-----2-----x--2--|


  E  E  E  E  E  E  E  E     S  S  E  E  E  S  S  E  E  S S  
--------------------------|---------------------------------|
--------------------------|---------------------------------|
--------------------------|---------------------------------|
--------------------------|--4h-5p-4--------4h-5p-4---------|
--L-----------------------|--4h-5p-4--------4h-5p-4---------|
--L--2--2--2--2--2--2--2--|-----------2--2-----------2--2-2-|


  E   E  E  E  E  E  E  S S    Q    E  E  E  E  E  E     Q    Q    E  E  E  E   
----------------------------|-------------------------|------------------------|
----------------------------|-------------------------|------------------------|
----------------------------|-------------------------|------------------------|
-----11-----4-----4-----7-7-|--7----7--------7-----7--|--7----7----7--7--------|
--x---9-----4-----4-----5-5-|--5----5-----x--5-----5--|--5----5----5--5--x--4--|
----------------------------|-------------------------|---------------------2--|


  E  E  E  E  E  E  E  E     S  S  E  E  E  S  S  E  E  E   
--------------------------|--------------------------------|
--------------------------|--------------------------------|
--------------------------|--------------------------------|
--------------------------|--4h-5p-4--------4h-5p-4-----7--|
--L-----------------------|--4h-5p-4--------4h-5p-4--x--5--|
--L--2--2--2--2--2--2--2--|-----------2--2-----------------|


  Q    E  E  E  E  E  E     Q    Q    E  E  E  E     E  E  E  E  E  E  E  E   
-------------------------|------------------------|--------------------------|
-------------------------|------------------------|--------------------------|
-------------------------|------------------------|--------------------------|
--L----7--------7-----7--|--7----7----------------|--------------------------|
--L----5-----x--5-----5--|--5----5----------------|--------------------------|
-------------------------|------------5--3-----2--|--L--2--2--2--2--2--2--2--|


  S  S  E  E  E  S  S  E  E  E     Q    E  E  E  E  E  E   
--------------------------------|-------------------------|
--------------------------------|-------------------------|
--------------------------------|-------------------------|
--4h-5p-4--------4h-5p-4-----7--|--L----7--------7-----7--|
--4h-5p-4--------4h-5p-4--x--5--|--L----5-----x--5-----5--|
-----------2--2-----------------|-------------------------|


  Q    Q    E  E  E  E     E  E  E  E  E  E  E  E     E  E  E  E  E  E  E  E   
------------------------|--------------------------|--------------------------|
------------------------|--------------------------|--------------------------|
------------------------|--------------------------|--------------------------|
--7----7----7--7--7--5--|--L--5--5--------5-----5--|--L--5--5--------5-----7--|
--5----5----5--5--5--3--|--L--3--3-----x--3-----3--|--L--3--3-----x--3-----5--|
------------------------|--------------------------|--------------------------|


  E  E  E  E  E  E  E  E     E  E  E  E  E  E  E  E   
--------------------------|--------------------------|
--------------------------|--------------------------|
--------------------------|--------------------------|
--L--7--7--------7-----7--|--L--9--9--9--9--9--9--9--|
--L--5--5-----x--5-----5--|--L--7--7--7--7--7--7--7--|
--------------------------|--------------------------|


  E  E  E  E  E  E  E  E     E   E   E  E   E   E  E  E   
--------------------------|------------------------------|
--------------------------|------------------------------|
--------------------------|------------------------------|
-----9--9-----9--9-----9--|-----11--11-----11--11--------|
-----7--7-----7--7-----7--|------9---9------9---9-----9--|
--------------------------|---------------------------7--|


  E  E   E  E  E  E  E  E     E  E   E  E  E  E  E  E   
---------------------------|---------------------------|
---------------------------|---------------------------|
---------------------------|---------------------------|
---------------------------|---------------------------|
--L---------------------9--|--L---------------------5--|
--L--7--10--7--9--7--7--7--|--L--7--10--7--9--7--7--3--|


  E  E  E  E  E  E  E  E     E  E  E  E  E  E  E  E   
--------------------------|--------------------------|
--------------------------|--------------------------|
--------------------------|--------------------------|
--------------------------|--------------------------|
--L--------------------5--|-----4-----5-----4-----9--|
--L--3--3--3--3--3--3--3--|--x--2-----3-----2-----7--|


  E  E   E  E  E  E  E  E     E  E   E  E  E  E  E  E   
---------------------------|---------------------------|
---------------------------|---------------------------|
---------------------------|---------------------------|
---------------------------|---------------------------|
--L---------------------9--|--L---------------------5--|
--L--7--10--7--9--7--7--7--|--L--7--10--7--9--7--7--3--|


  E  E  E  E  E  E  E  E     E  E  E  E  E  E  E  E   
--------------------------|--------------------------|
--------------------------|--------------------------|
--------------------------|--------------------------|
--------------------------|--------------------------|
--L--------------------5--|-----4-----5-----4-----9--|
--L--3--3--3--3--3--3--3--|--x--2-----3-----2-----7--|


  E  E   E  E  E  E  E  E     E  E   E  E  E  E  E  E   
---------------------------|---------------------------|
---------------------------|---------------------------|
---------------------------|---------------------------|
---------------------------|---------------------------|
--L---------------------9--|--L---------------------5--|
--L--7--10--7--9--7--7--7--|--L--7--10--7--9--7--7--3--|


  E  E  E  E  E  E  E  E     E  E  E  E  E  E  E  E   
--------------------------|--------------------------|
--------------------------|--------------------------|
--------------------------|--------------------------|
--------------------------|--------------------------|
--L--------------------5--|-----4-----5-----4-----9--|
--L--3--3--3--3--3--3--3--|--x--2-----3-----2-----7--|


  E  E   E  E  E  E  E  E     E  E   E  E  E  E  E  E     W                 
---------------------------|---------------------------|-------------------|
---------------------------|---------------------------|-------------------|
---------------------------|---------------------------|-------------------|
---------------------------|---------------------------|-------------------|
--L---------------------9--|--L---------------------3--|--L----------------|
--L--7--10--7--9--7--7--7--|--L--7--10--7--9--7--7--1--|--L----------------|


   Pick slide                                                  
   S          S   S   S   S   S  S  S  S  S  S  S  S  S  S  S  
--------------------------------------------------------------|
--------------------------------------------------------------|
--------------------------------------------------------------|
--------------------------------------------------------------|
--------------------------------------------------------------|
--15S--------14S-13S-12S-11S-10S-9S-8S-7S-6S-5S-4S-3S-2S-1S-0-|


  S  S  E  E  S S S  S  E  E  S S    E  E  E  E  E  E  Q            
----------------------------------|-------------------------|-----||
----------------------------------|-------------------------|-----||
----------------------------------|-------------------------|-----||
--4--5p-4---------4h-5p-4---------|-----4-----4-----4-------|-----||
--4h-5p-4---------4h-5p-4---------|-----4-----4-----4-------|-----||
-----------2--2-2----------2--2-2-|-------------------------|-----||




Duration Legend
---------------
W - whole
H - half
Q - quarter
E - 8th
S - 16th
T - 32nd
X - 64th
. - note dotted
|-n-|  - n-tuplets


Tablature Legend
----------------
L - tied note
x - dead note
g - grace note
(n) - ghost note
> - accentuded note
NH - natural harmonic
AH - artificial harmonic
TH - tapped harmonic
SH - semi harmonic
PH - pitch harmonic
h - hammer on
p - pull off
b - bend
br - bendRelease
pb - preBend
pbr - preBendRelease
brb - bendReleaseBend
\n/ - tremolo bar dip
\n - tremolo bar dive
-/n - tremolo bar Release up
/n\ - tremolo bar inverted dip
/n - tremolo bar return
-\n - tremolo bar Release down
S - shift slide
s - legato slide
/ -  slide into from below or out of upwards
\ -  slide into from above or out of downwards
~ - vibrato
W - wide vibrato
tr - trill
TP - tremolo picking
T - tapping
S - slap
P - pop
< - fade in
^ - brush up
v - brush down
Добавлено: 17.11.2013
Другие материалы по этой песне:

Страница создана 24.03.2012
http://primanota.ru/gamma-ray/your-turn-is-over-chords.htm
Привет, Гость.
Предлагаем пройти революционный курс по гитаре.
Подарок от PrimaNota.Ru, забирай!