PrimaNota.ru - самый крупный в мире бесплатный архив песенных текстов, аккордов, табулатур и нот


Gama Bomb - Mussolini Mosh - таба, бас-таба, видео

Регистрация Запомнить меня
Войти через:  Facebook Google Twitter Vk Yandex Mail.ru

Gama Bomb - Mussolini Mosh - таба, бас-таба, видео

Печатать
Просмотров: 155
Tabbed by:Ian 
Email: ijrrevallo@yahoo.com

Tuning: Standard

This is the part in the intro that just makes you wanna bang your head :)

0:18
e|----------------------------------------------------------------------|
B|----------------------------------------------------------------------|
G|----------------------------------------------------------------------|
D|-2----------9---------------------------------------------------------|
A|-2----------7-8----------5-8-----------8-5----------------------------|
E|-0-0-0-0-0----6--6-6-6-6-3-6--6-6-6-6--6-3--0-0-0-0-0-0---------------|
     .......       .......      .......       ...........

e|----------------------------------------------------------------------|
B|----------------------------------------------------------------------|
G|----------------------------------------------------------------------|
D|-2----------9---------------------------------------------------------|
A|-2----------7-8----------5-8-----------8-5----------------------------|
E|-0-0-0-0-0----6--6-6-6-6-3-6--6-6-6-6--6-3--0-0-0-0-0-0---------------|


e|----------------------------------------------------------------------|
B|----------------------------------------------------------------------|
G|----------------------------------------------------------------------|
D|-2----------9---------------------------------------------------------|
A|-2----------7-8----------5-8-----------8-5----------------------------|
E|-0-0-0-0-0----6--6-6-6-6-3-6--6-6-6-6--6-3--0-0-0-0-0-0---------------|


e|------------------------------------------------------------------------|
B|------------------------------------------------------------------------|
G|------------------------------------------------------------------------|
D|-2----------9-----------------------------2~----------------------------|
A|-2----------7-8----------5-8-----------8--2~----------------------------|
E|-0-0-0-0-0----6--6-6-6-6-3-6--6-6-6-6--6--0~----------------------------|

0:35
     .......       .......      .......       
Добавлено: 30.06.2012
Другие материалы по этой песне:

Страница создана 07.04.2012
http://primanota.ru/gama-bomb/mussolini-mosh-chords.htm
Привет, Гость.
Предлагаем пройти революционный курс по гитаре.
Подарок от PrimaNota.Ru, забирай!