PrimaNota.ru - самый крупный в мире бесплатный архив песенных текстов, аккордов, табулатур и нот


Galy Galiano - Miedo Del Olvido - таба, видео

Регистрация Запомнить меня
Войти через:  Facebook Google Twitter Vk Yandex Mail.ru

Galy Galiano - Miedo Del Olvido - таба, видео

Печатать
Просмотров: 59
BALADA DE ESTE CANTAUTOR COLOMBIANO


INTRO

    A     E       D       A   F#m  E7   Bm     D      A

e --5-4-2-------------2-4-2--------------------2---------
B --------5-----2-3-5-------5------5-3-2-3--------5-4-5--
G ----------4-4------------------------------------------
D -------------------------------------------------------
A -------------------------------------------------------
E -------------------------------------------------------

    A     E       D       A   F#m   E7   Bm    E D    A

e --5-4-2-------------2-4-2--------------------4-2-------
B --------5-----2-3-5-------5------5-3-2-3----------3-2--
G ----------4-4------------------------------------------
D -------------------------------------------------------
A -------------------------------------------------------
E -------------------------------------------------------


     A            E                    A     A D A
Si pienso en el tiempo que tengo sin verte
     A        E                 A     A D A
Me dan sentimientos deseando tenerte
     A       E        Bm        A
Que triste quedo la tarde de un día
     A       E        Bm        A
Cuando tu partida temblaba mi pecho
       A         E       Bm         A
Yo al mirar tus ojos tu amor lo sentía
     A         E       Bm        A
No ves que no puedo vivir del recuerdo


 A      E                    A
Del recuerdo de las cosas bellas,
 A            E      Bm        A
Bellas que pasamos  juntos los dos
     E                 A                   E
ooh oho Ven que tengo miedo ven que tengo miedo

   E   D    A
Miedo del olvido


CORO

   A       E           D           A   F#m
A donde vallas yo te pido me recuerdes
   E7      Bm   D         A
Llévame en ti siempre mi amor
  A       E           D             A   F#m
Hoy estoy solo y al dolor le tengo miedo
   E7   Bm    E  D    A
Regresa ya, ven por favor


INTRO

    A     E       D       A   F#m  E7   Bm     D      A

e --5-4-2-------------2-4-2--------------------2---------
B --------5-----2-3-5-------5------5-3-2-3--------5-4-5--
G ----------4-4------------------------------------------
D -------------------------------------------------------
A -------------------------------------------------------
E -------------------------------------------------------

    A     E       D       A   F#m   E7   Bm    E D    A

e --5-4-2-------------2-4-2--------------------4-2-------
B --------5-----2-3-5-------5------5-3-2-3----------3-2--
G ----------4-4------------------------------------------
D -------------------------------------------------------
A -------------------------------------------------------
E -------------------------------------------------------


     A            E                    A     A D A
Las noches son claras, los días son oscuros
     A        E                 A      A D A
Todo es invertido sino estoy con tigo
     A       E        Bm        A
A pasado un tiempo de puro silencio
     A       E        Bm        A
Parece que todo da paso al olvido
     A       E        Bm        A
Yo no me arrepiento de haberte querido
     A       E        Bm        A
Pero ven que puedo morir del recuerdo

 A      E                    A
Del recuerdo de las cosas bellas,
 A            E      Bm        A
Bellas que pasamos  juntos los dos
     E                 A                   E
ooh oho Ven que tengo miedo ven que tengo miedo

   E   D    A
Miedo del olvido


CORO

   A       E           D           A   F#m
A donde vallas yo te pido me recuerdes
  E7       Bm    D         A
Llévame en ti siempre mi amor
  A       E           D             A   F#m
Hoy estoy solo y al dolor le tengo miedo
   E7   Bm   D        A
Regresa ya, ven por favor


   A       E           D           A   F#m
A donde vallas yo te pido me recuerdes
   E7      Bm   D         A
Llévame en ti siempre mi amor
  A       E           D             A   F#m
Hoy estoy solo y al dolor le tengo miedo
   E7   Bm   D        A
Regresa ya, ven por favor


   A       E           D           A   F#m
A donde vallas yo te pido me recuerdes
   E7      Bm   D         A
Llévame en ti siempre mi amor
  A       E           D             A   F#m
Hoy estoy solo y al dolor le tengo miedo
   E7   Bm   D        A
Regresa ya, ven por favor
Добавлено: 28.04.2016
Другие материалы по этой песне:
  • Аккорды и текст

Страница создана 28.04.2016
http://primanota.ru/galy-galiano/miedo-del-olvido-chords.htm
Привет, Гость.
Предлагаем пройти революционный курс по гитаре.
Подарок от PrimaNota.Ru, забирай!