PrimaNota.ru - самый крупный в мире бесплатный архив песенных текстов, аккордов, табулатур и нот


Galneryus - United Blood - таба, видео

Регистрация Запомнить меня
Войти через:  Facebook Google Twitter Vk Yandex Mail.ru

Galneryus - United Blood - таба, видео

Печатать
Просмотров: 44
Tuning Standard
This is my first attempt at tabbing United Blood by GALNERYUS, I am doing absolutely
nothing with the
timing, for that you can just listen to the song while you play. This tab is probably
not 100%, but
this should give you guys a good start at learning this song. It's a great one to learn.
If you find any mistakes put those in the corrections below.
E-------17-12-14----17-12-14----17-12-14----17-12-14----17-12-14----------------------------------------|
B----12----------12----------12----------12----------12-------------------------------------------------|
G-------------------------------------------------------------------------------------------------------|
D-------------------------------------------------------------------------------------------------------|
A-------------------------------------------------------------------------------------------------------|
E-------------------------------------------------------------------------------------------------------|

E-------17-12-14----17-12-14----17-12-14----1712-14----17-12-14-----------------------------------------|
B----12----------12----------12----------12---------12--------------------------------------------------|
G-------------------------------------------------------------------------------------------------------|
D-------------------------------------------------------------------------------------------------------|
A-------------------------------------------------------------------------------------------------------|
E-------------------------------------------------------------------------------------------------------|

E-------17-12-14----17-12-14----17-12-14----17-12-14----17-12-14----------------------------------------|
B----12----------12----------12----------12----------12-------------------------------------------------|
G-------------------------------------------------------------------------------------------------------|
D-------------------------------------------------------------------------------------------------------|
A-------------------------------------------------------------------------------------------------------|
E-------------------------------------------------------------------------------------------------------|

E-------17-12-14----17-12-14----17-12-14----17-12-14----17-12-14----------------------------------------|
B----12----------12----------12----------12----------12-------------------------------------------------|
G-------------------------------------------------------------------------------------------------------|
D-------------------------------------------------------------------------------------------------------|
A-------------------------------------------------------------------------------------------------------|
E-------------------------------------------------------------------------------------------------------|

E-------17-12-14----17-12-14----17-12-14-----17-12-14----17---------------------------------------------|
B----12----------12----------12----------12-----------12------------------------------------------------|
G-------------------------------------------------------------------------------------------------------|
D-------------------------------------------------------------------------------------------------------|
A-------------------------------------------------------------------------------------------------------|
E-------------------------------------------------------------------------------------------------------|

E-----------------------------------------------------------------------------------------7-5-----------
B---1s2-3-3L4L5v-3L4L5-3L45-3L4L5-3L4L5-3-3L4L5v-5-5L6L7-5L6L7-5L6l7-5L6L7-5L6L7-5-5L6L7v-----5-5L6L7v--
G-------------------------------------------------------------------------------------------------------
D-------------------------------------------------------------------------------------------------------
A-------------------------------------------------------------------------------------------------------
E-------------------------------------------------------------------------------------------------------

E-------------------------------------------------------------------------------------------------------
B---3-3-3-3-3-3-2-3-5---5-5-5-5-5s4-4-4-4-4-4-3-3-3-3-3-3-2-2-2-2-2-2------2----------------------------
G---------------------------------------------------------------------4v-4---2--------------------------
D------------------------------------------------------------------------------3-4v---------------------
A-------------------------------------------------------------------------------------------------------
E-------------------------------------------------------------------------------------------------------

E-----------------------------------------------------------------------------------------7-5-----------
B---1s2-3-3L4L5v-3L4L5-3L45-3L4L5-3L4L5-3-3L4L5v-5-5L6L7-5L6L7-5L6l7-5L6L7-5L6L7-5-5L6L7v-----5-5L6L7v--
G-------------------------------------------------------------------------------------------------------
D-------------------------------------------------------------------------------------------------------
A-------------------------------------------------------------------------------------------------------
E-------------------------------------------------------------------------------------------------------

E-------------------------------------------------------------------------------------------------------
B---3-3-3-3-3-3-2-3-5-5-5-5-5-5s4-4-4-4-4-4-3-3-3-3-3-3-2-2-2-2-2-2-3s5-5-5-5-5-5-3-3-3-3-3-3p2---------
G-------------------------------------------------------------------------------------------------------
D-------------------------------------------------------------------------------------------------------
A-------------------------------------------------------------------------------------------------------
E-------------------------------------------------------------------------------------------------------

E------------4-5-55555-7-77777-9-99999-12-121212---------------------17---------------------------------
B--------4-5-------------------------------------18v=17-18-20v=18-20----20------------------------------
G---4v-5------------------------------------------------------------------------------------------------
D-------------------------------------------------------------------------------------------------------
A-------------------------------------------------------------------------------------------------------
E-------------------------------------------------------------------------------------------------------

E---22----20-21-15-17v-12s17-18-18-18---------------------17----20-21-15-17v----------------------------
B------22-----------------------------15b17-16-16p15---------20-----------------------------------------
G----------------------------------------------------17v------------------------------------------------
D-------------------------------------------------------------------------------------------------------
A-------------------------------------------------------------------------------------------------------
E-------------------------------------------------------------------------------------------------------

E---12s17----------------17v-17-----20-21-15-17-12s17-------------------17-----20-21-15-17--------------
B----------17b18-17b18----------20--------------------17b19-18-18p17-------20---------------------------
G----------------------19-------------------------------------------19v---------------------------------
D-------------------------------------------------------------------------------------------------------
A-------------------------------------------------------------------------------------------------------
E-------------------------------------------------------------------------------------------------------

E-------------------------------------------------------------------------------------------------------
B---19-17-17b18-17b18-----------------------------------------------------------------------------------
G-------------------------------------------------------------------------------------------------------
D-------------------------------------------------------------------------------------------------------
A-------------------------------------------------------------------------------------------------------
E-------------------------------------------------------------------------------------------------------

E-------------12-12-12-14v-14h15p14-12-14-17-19-12-14v--------------------------------------------------
B--8s14-15-15-------------------------------------------------------------------------------------------
G-------------------------------------------------------------------------------------------------------
D-------------------------------------------------------------------------------------------------------
A-------------------------------------------------------------------------------------------------------
E-------------------------------------------------------------------------------------------------------

E-------------------------------------------------------------------------------------------------------
B------12b15-15-14b15-10s14-15-14b15-14-15p14-12v-------------------------------------------------------
G---14--------------------------------------------------------------------------------------------------
D-------------------------------------------------------------------------------------------------------
A-------------------------------------------------------------------------------------------------------
E-------------------------------------------------------------------------------------------------------

E---15p14p12--------------------------------------------------------------------------------------------
B------------15p14p12-----------------------------------------------------------------------------------
G---------------------15p14p12-14p13p11-12p11p9---------------------------------------------------------
D-----------------------------------------------7s9s12s7------------------------------------------------
A-------------------------------------------------------------------------------------------------------
E-------------------------------------------------------------------------------------------------------

E------------12-12-------------14h15p14-12-14-17-19-12-14v----------------------------------------------
B---15-15----------15-15-14b15-----------------------------10s14-15-15-15-15b17-15L16L17v---------------
G-------------------------------------------------------------------------------------------------------
D-------------------------------------------------------------------------------------------------------
A-------------------------------------------------------------------------------------------------------
E-------------------------------------------------------------------------------------------------------

Tab Key:
= hold the note
h-hammer-on
p-pull-off
v-vibrato
s-slide
b-bend
L-tied note
Добавлено: 16.12.2015
Другие материалы по этой песне:
  • Аккорды и текст

Страница создана 16.12.2015
http://primanota.ru/galneryus/united-blood-chords.htm
Привет, Гость.
Предлагаем пройти революционный курс по гитаре.
Подарок от PrimaNota.Ru, забирай!