PrimaNota.ru - самый крупный в мире бесплатный архив песенных текстов, аккордов, табулатур и нот


Gallows - Kill The Rhythm - текст песни, таба, бас-таба, видео

Регистрация Запомнить меня
Войти через:  Facebook Google Twitter Vk Yandex Mail.ru

Gallows - Kill The Rhythm - текст песни, таба, бас-таба, видео

Печатать
Просмотров: 153
Song: Kill The Rhythm
Artist: Gallows
Album:  Orchestra of Wolves

Tabbed by: garyhann
Email: garyhann@live.co.uk

Tuning: Drop D

What an album and what a song! I'm suprised this hasn't been tabbed before.
Enjoy!

  
  Intro – 0:00 – Guitar 1
e|-----------------------------------------------------------|
B|--55555-5555-5555-555--------------------------------------|
G|-----------------------------------------------------------|
D|--44443-333-----------5-3535-3-5-3535-3-5-3535-3-5-3535-3--|
A|-----------3-3334-444-5-3535-3-5-3535-3-5-3535-3-5-3535-3--|
D|----------------------5-3535-3-5-3535-3-5-3535-3-5-3535-3--|

  0:00 – Guitar 2
e|-----------------------------------------------------------|
B|-----------------------------------------------------------|
G|-----------------------------------------------------------|
D|----------------------5-3535-3-5-3535-3-5-3535-3-5-3535-3--|
A|----------------------5-3535-3-5-3535-3-5-3535-3-5-3535-3--|
D|----------------------5-3535-3-5-3535-3-5-3535-3-5-3535-3--|

  
  Verse – 0:10 – Guitar 1
e|-----------------------------------------------------------|
B|--55555-5555-5555-555--------------------------------------|
G|-----------------------------------------------------------|
D|--44443-333-----------5-3535-3-5-3535-3-5-3535-3-5-3535-3--|
A|-----------3-3334-444-5-3535-3-5-3535-3-5-3535-3-5-3535-3--|
D|----------------------5-3535-3-5-3535-3-5-3535-3-5-3535-3--|

  0:10 – Guitar 2
e|-------------------------------------------------------------------|
B|-------------------------------------------------------------------|
G|--1111111110-1010105-5556-666--------------------------------------|
D|------------------------------5-3535-3-5-3535-3-5-3535-3-5-3535-3--|
A|--9-9-9-9-8--8-8-8-3-3334-444-5-3535-3-5-3535-3-5-3535-3-5-3535-3--|
D|------------------------------5-3535-3-5-3535-3-5-3535-3-5-3535-3--|


  Chorus – 0:19 – Both Guitars
e|---------------------------------------------------------------------------|
B|---------------------------------------------------------------------------|
G|-------7-7-7-7-7-7-7-----------------------7-7-7-7-7-7-7-------------------|
D|--0-------------------333-555-666-565-0-------------------333-555-111-666--|
A|--0----5-5-5-5-5-5-5--333-555-666-565-0----5-5-5-5-5-5-5--333-555-111-666--|
D|--0-------------------333-555-666-565-0-------------------333-555-111-666--|


[PLAY VERSE TO CHORUS]


  Bridge – 1:16  - Guitar 1
e|---------------------------------------------------------------|
B|---------------------------------------------------------------|
G|-----7------------7------------7-------------------------------|
D|--0----------8-0------------0----------8-333-3555-5111-1666-6--|
A|--0----76-65---0----76-66-5-0----76-65---333-3555-5111-1666-6--|
D|--0------------0------------0------------333-3555-5111-1666-6--|

  Guitar 2
e|---------------------------------------------------------------|
B|---------------------------------------------------------------|
G|---------------------------------------------------------------|
D|--0-----------00-----------00------------333-3555-5111-1666-6--|
A|--0-----------00-----------00------------333-3555-5111-1666-6--|
D|--0-----------00-----------00------------333-3555-5111-1666-6--|


  Bridge 2 – 1:49 – Guitar 1
e|---------------------------|
B|---------------------------|
G|---------------------------|
D|--9-6-5---------------5-6--|
A|--------9-6-5---5-6-9------|
D|--------------9------------|

              OR              

e|---------------------------|
B|---------------------------|
G|--4-1-0---------------0-1--|
D|--------4-1-0---0-1-4------|
A|--------------2------------|
D|---------------------------|

  1:49 – Guitar 2
e|------------------------------------------------------|
B|------------------------------------------------------|
G|------------------------------------------------------|
D|--0~----------3~----------5~----------3~-----5~-------|
A|--0~----------3~----------5~----------3~-----5~-------|
D|--0~----------3~----------5~----------3~-----5~-------|


  Bridge 3 – 2:03 – Guitar 1
e|---------------------------------------------------|
B|---------------------------------------------------|
G|--8-8-8-8-8-8-6-6-6-6-6-6-8-8-8-8-8-8-6-6-6-8-8-8--|
D|---------------------------------------------------|
A|---------------------------------------------------|
D|---------------------------------------------------|

  2:03 – Guitar 2
e|---------------------------------------------------|
B|---------------------------------------------------|
G|---------------------------------------------------|
D|--0-0-0-0-0-0-3-3-3-3-3-3-5-5-5-5-5-5-3-3-3-5-5-5--|
A|--0-0-0-0-0-0-3-3-3-3-3-3-5-5-5-5-5-5-3-3-3-5-5-5--|
D|--0-0-0-0-0-0-3-3-3-3-3-3-5-5-5-5-5-5-3-3-3-5-5-5--|
  

  Final Chorus – 2:26
e|---------------------------------------------------------------------------|
B|---------------------------------------------------------------------------|
G|-------7-7-7-7-7-7-7-----------------------7-7-7-7-7-7-7-------------------|
D|--0-------------------333-555-666-565-0-------------------333-555-111-1111-|
A|--0----5-5-5-5-5-5-5--333-555-666-565-0----5-5-5-5-5-5-5--333-555-111-1111-|
D|--0-------------------333-555-666-565-0-------------------333-555-111-1111-|
  The last part is 3s, 5s, 1s, then 11s.                           


  End – 2:33 – Both Guitars
e|-------------------------|
B|-------------------------|
G|-------------------------|
D|--333-3555-5111-1666-60--|
A|--333-3555-5111-1666-60--|
D|--333-3555-5111-1666-60--|
Добавлено: 30.03.2012
Другие материалы по этой песне:
  • Аккорды и текст

Страница создана 30.03.2012
http://primanota.ru/gallows/kill-the-rhythm-chords.htm
Привет, Гость.
Предлагаем пройти революционный курс по гитаре.
Подарок от PrimaNota.Ru, забирай!