PrimaNota.ru - самый крупный в мире бесплатный архив песенных текстов, аккордов, табулатур и нот


Gallowbraid - Oak And Aspen - таба, видео

Регистрация Запомнить меня
Войти через:  Facebook Google Twitter Vk Yandex Mail.ru

Gallowbraid - Oak And Aspen - таба, видео

Печатать
Просмотров: 270
Уроки эстрадного вокала в Санкт-Петербурге
Ex
e----------------------------------------------------------------------------|
B---------------0------------------------------0-----------------------------|
G--------0---0-----0---------------0-----------------------------------------|
D----2-----------2-----------------------------------------------------------|
A--0--------------------0----------------------------------------------------|
E----------------------------------------------------------------------------|
Ex

Part 1

AMinor 9  Strumming Down Up Down Up on A D G B

Play twice^ x Stands for don't play that string


Aminor 7
Ex
e-----------------------------------------------------------------------------|
B-------------------1-------------------1-------------------------------------|
G--------0----0--------0--------0--------------0------------------------------|
D-----2-----------2-------2---------------------------2-----------------------|
A-0--------------------O------------------------------0-----------------------|
E-----------------------------------------------------------------------------|

Ex
Aminor 11 Strumming Down Up Down Up On A D G B
Ex
e-----------------------------------------------------------------------------|
B----------------3------------------------3-----------------------------------|
G--------0-------------0----------0------0-------0----------------------------|
D-----2-------------------2----------2----------2-----------------------------|
A-0------------------------0-------------------------------0------------------|
E-----------------------------------------------------------------------------|
Ex

Part 3
Cmajor 7
Ex
e-----------------------------------------------------------------------------|
B--------------0-------------------------------------0------------------------|
G-------0----------0------------------------0-----------0---------------------|
D---2--------------2------2-------------2----------------2--------------------|
A--3-------------------3------------------------------------3-----------------|
E-----------------------------------------------------------------------------|
Ex

Same strumming Down Up Down Up On A D G B

Part 4
Ex
e----------------------------------------------------------------------------|
B---------------1------3-----------------------------------------------------|
G-------0-------------0------------------------------------------------------|
D-----2----------2-----------------------------------------------------------|
A-3------------3-------------------------------------------------------------|
E----------------------------------------------------------------------------|
Ex
C Add 5
Ex
e-----------------------------------------------------------------------------|
B---------------3------------------------3------------------------------------|
G--------0--------0-------------0---------------0-----------------------------|
D----2-------------2-------2---------------------2----------------------------|
A--3--------------------3-----------------------3-----------------------------|
E-----------------------------------------------------------------------------|
Ex
Добавлено: 11.06.2013
Другие материалы по этой песне:
  • Аккорды и текст

Страница создана 11.06.2013
http://primanota.ru/gallowbraid/oak-and-aspen-chords.htm
Привет, Гость.
Предлагаем пройти революционный курс по гитаре.
Подарок от PrimaNota.Ru, забирай!