PrimaNota.ru - самый крупный в мире бесплатный архив песенных текстов, аккордов, табулатур и нот


Gallhammer - Speed Of Blood - таба, видео

Регистрация Запомнить меня
Войти через:  Facebook Google Twitter Vk Yandex Mail.ru

Gallhammer - Speed Of Blood - таба, видео

Печатать
Просмотров: 184
Уроки эстрадного вокала в Санкт-Петербурге
Band:  Gallhammer
Album: The Dawn of...
Song:  Speed of Blood

Copyright (c)  (Peaceville Records) (2006)
Version 1.0 - (01/02/07)

Transcribed By: Steve
Email:          stephen.elvidge1@ntlworld.com

http://www.gallhammer.com/


.  - palm mute           /  - slide up to
\  - slide down to       ~  - vibrato
h  - hammer on           b  - Bend
p  - pull off            Suffixes for bend
t  - tap                 f  - full bend    h - half bend
ph - pinched harmonic    q  - quarter bend t - tap bend
*  - see comment         ^  - Hold bend    r release bend
x  - Stuccatto           ~  - vibrato bend
,  - slight palm mute    () - ghost note, sustained note
"  - tremolo note        <> - harmonic
pb - pre bend

Tuning E A D G B E



 Fade in

 Main Riff

 [----------------------light PM--------------------]
|-----------------------------------------------------|
|-----------------------------------------------------|
|-----------------------------------------------------|
|-4444444444444444-3333333333333333-4444444444444444--|
|-----------------------------------------------------|
|-----------------------------------------------------|

 [---light PM---]
|---------------------|
|---------------------|
|---------------------|
|---------------------|
|-55555555555555-5-5--|
|---------------------|

 Rpt Main Riff 7 X

 Chorus

    [-PM-]
|--------------------|
|--------------------|
|--------------------|
|-4--------5-5-/7\5--|
|-4--------5-5-/7\5--|
|-2--2-2-2/3-3-/5\3--| Rpt 3 X

    [-PM-]
|-------------------|
|-------------------|
|-------------------|
|-4--------3-3-3-3--|
|-4--------3-3-3-3--|
|-2--2-2-2\1-1-1-1--|

 Rpt above

 2nd guitar

           Pick scrape
|----------------|
|----------------|
|----------------|
|-feedback-------|
|-----------\-\--|
|------------\-\-|

 Rpt Main Riff 4 x

 Rpt Chorus

 Solo(backing is Main Riff)

|-7777777777777777-6666666666666666-7777777777777777---------88888888-|
|-7777777777777777-6666666666666666-7777777777777777-8888888888888888-|
|---------------------------------------------------------------------|
|---------------------------------------------------------------------|
|---------------------------------------------------------------------|
|---------------------------------------------------------------------|

 Rpt 4 X

 Guitar 1
[-7777777777777777-6666666666666666-7777777777777777---------88888888-|
[-7777777777777777-6666666666666666-7777777777777777-8888888888888888-|
[---------------------------------------------------------------------|
[---------------------------------------------------------------------|
[---------------------------------------------------------------------|
[---------------------------------------------------------------------|
[Guitar 2
[
[---------------------------------------------------------------------|
[---------------------------------------------------------------------|
[---------------------------------------------------------------------|
[------------------8888888888888888-----------------------------------|
[-2222222222222222-6666666666666666-2222222222222222-3333333333333333-|
[-0000000000000000------------------0000000000000000-1111111111111111-|

 Rpt 4 X

 Rpt Chorus x 2

 Last time
    [-PM-]
|--------------------|
|--------------------|
|--------------------|
|-4--------5-5-/7\5--|
|-4--------5-5-/7\5--|
|-2--2-2-2/3-3-/5\3--|



END

Добавлено: 21.04.2012
Другие материалы по этой песне:
  • Аккорды и текст

Страница создана 21.04.2012
http://primanota.ru/gallhammer/speed-of-blood-chords.htm
Привет, Гость.
Предлагаем пройти революционный курс по гитаре.
Подарок от PrimaNota.Ru, забирай!