PrimaNota.ru - самый крупный в мире бесплатный архив песенных текстов, аккордов, табулатур и нот


Gallhammer - Lost Myself - таба, видео

Регистрация Запомнить меня
Войти через:  Facebook Google Twitter Vk Yandex Mail.ru

Gallhammer - Lost Myself - таба, видео

Печатать
Просмотров: 85
-----------------------------
  LOST MY SELF - Gallhammer
-----------------------------
Tabbed by: Damien Zehnder
E-mail: damzeh@yahoo.com

Tuning: standard

This song comes off their first album Gloomy Lights (2004).

RIFF 1a
e|----------------------------------|
B|----------------------------------|
G|----------------------------------|
D|--33-333-333-322-233-333-355-566--|
A|--33-333-333-322-233-333-355-566--|
E|--11-111-111-100-011-111-133-344--|

RIFF 1b
e|----------------------------------------|-----|
B|----------------------------------------|-----|
G|----------------------------------------|-----|
D|--33-333-333-322-233-333-3-6-6-6-5-5-5--|--5--|
A|--33-333-333-322-233-333-3-6-6-6-5-5-5--|--5--|
E|--11-111-111-100-011-111-1-4-4-4-3-3-3--|--3--|

NOTE: Riff 1a is followed immediately by 1b.
On the last time playing the whole riff play the last chord one strum extra and let it ring.


RIFF 2a
e|----------------------------------|
B|----------------------------------|
G|----------------------------------|
D|--22-233-322-233-322-233-355-544--|
A|--00-011-100-011-100-011-133-322--|
E|----------------------------------|

RIFF 2b
e|--------------------------------------|
B|--------------------------------------|
G|--------------------------------------|
D|--22-233-322-233-322-233-5-5-5-4-4-4--|
A|--00-011-100-011-100-011-3-3-3-2-2-2--|
E|--------------------------------------|

NOTE: The same rule applies here for playing.
Also note that at the end of the song, when this riff is repeated, you strum the last 
chord 4 times and let ring like you did with Riff 1b.


RIFF 3
e|--------------------|    |------------------|
B|--------------------|    |------------------|
G|--------------------|    |--5-55-5-5--------|
D|--2-22-2-23-33-3-3--| x3 |--3-33-3-35-55-5--| x1
A|--0-00-0-01-11-1-1--|    |----------3-33-3--|
E|--------------------|    |------------------|


SOLO
e|----5--5-----5--5----|    |--8-88-8-87-77-7--|
B|--5---5--5-6---6--6--|    |--8-88-8-87-77-7--|
G|---------------------|    |------------------|
D|---------------------| x3 |------------------| x1
A|---------------------|    |------------------|
E|---------------------|    |------------------|




PLAYING ORDER
-------------
RIFF 1 x4
RIFF 2 x5
RIFF 3 x1
RIFF 3 + SOLO x1
RIFF 2 x3
Добавлено: 16.08.2013
Другие материалы по этой песне:
  • Аккорды и текст

Страница создана 16.08.2013
http://primanota.ru/gallhammer/lost-myself-chords.htm
Привет, Гость.
Предлагаем пройти революционный курс по гитаре.
Подарок от PrimaNota.Ru, забирай!