PrimaNota.ru - самый крупный в мире бесплатный архив песенных текстов, аккордов, табулатур и нот


Gallagher, Rory - The cucoo - аккорды и текст, видео

Регистрация Запомнить меня
Войти через:  Facebook Google Twitter Vk Yandex Mail.ru

Gallagher, Rory - The cucoo - аккорды и текст, видео

Печатать
Просмотров: 69
The cucoo
Gallagher, Rory



  the chords for the verses are:

  oh the cucoo, she's a pretty bird
  Am         Am              Am

 and she  wobles as she flys
         G       Am

reapeat this
progression a
lot of times

the backing chords for the solo and the outro are

   G  Am  C  Am  G  Am Am


  All the improvising is done with the A minor blues and pentatonic scales

blues scale
----------------------------5-8-
---------------------5-8--------
---------------5-7-8------------
-----------5-7------------------
-----5-6-7----------------------
-5-8----------------------------

pentatonic scale
------------------------5-8---
-------------------5-8--------
--------------5-7-------------
---------5-7------------------
-----5-7----------------------
-5-8--------------------------

Добавлено: 24.12.2013
Другие материалы по этой песне:
  • Аккорды и текст

Страница создана 24.12.2013
http://primanota.ru/gallagher-rory/the-cucoo-chords.htm
Привет, Гость.
Предлагаем пройти революционный курс по гитаре.
Подарок от PrimaNota.Ru, забирай!