PrimaNota.ru - самый крупный в мире бесплатный архив песенных текстов, аккордов, табулатур и нот


Gallagher, Rory - Bullfrog Blues Bass - бас-таба, видео

Регистрация Запомнить меня
Войти через:  Facebook Google Twitter Vk Yandex Mail.ru

Gallagher, Rory - Bullfrog Blues Bass - бас-таба, видео

Печатать
Просмотров: 125
rory gallagher - bullfrog blues (bass solo)

by: TH13RRY (devourment666@hotmail.com)
(16 notes in every measure)
(x = 1/16 rest)

G|-----------------7---9-7---------|---------------------------------|
D|---9-9---7---7-9---9-----9-7-9-x-|---9-9---7---9-7---9-7---9-7-----|
A|-------9---9---------------------|-------9---9-----9-----9-----9-x-|
E|-7-------------------------------|-7-------------------------------|

G|---9-9---7---9-7---9-7---9-7-----|---------------7---9-7---9-7-----|
D|-------9---9-----9-----9-----9-x-|---9-9---7---9---9-----9-----9-x-|
A|-7-------------------------------|-------9---9---------------------|
E|---------------------------------|-7-------------------------------|

G|--11-x-9------11-9---11-9------11------|
D|---------11-9------9------11-9----9-11-|
A|-9-------------------------------------|
E|---------------------------------------|

G|---------11-x---11-x---11------------|
D|-9-x-x-9------9------9----9-12-x-7-8-|
A|-------------------------------------|
E|-------------------------------------|

G|-----7-8-----7-8-----7-8-----7-8-|-----7-8-----7-8-----7-8-----7-8-|
D|-9-9-----9-9-----9-9-----9-9-----|-9-9-----9-9-----9-9-----9-9-----|
A|---------------------------------|---------------------------------|
E|---------------------------------|---------------------------------|

G|-----7---9-7-------7---9-7---9---|-----7---9-7-------11---11----9-11-9-|
D|---9---9-----9-x-9---9-----9---7-|-8-9---9-----9-7-9----9----11--------|
A|-7-------------------------------|-------------------------------------|
E|---------------------------------|-------------------------------------|

G|-11-9----11-9----11-11-9-9-12-12-11-11-----|
D|------11------11-----------------------7-8-|
A|-------------------------------------------|
E|-------------------------------------------|

G|---------------------------------|---|
D|-9-9-9-9-9-9-9-9-9-9-7-x---------|---|
A|---------------------------------|---|
E|-------------------------5-x-6-x-|-7-|

_________________________________________________________________
     
Добавлено: 09.08.2013
Другие материалы по этой песне:
  • Аккорды и текст

Страница создана 09.08.2013
http://primanota.ru/gallagher-rory/bullfrog-blues-bass-chords.htm
Привет, Гость.
Предлагаем пройти революционный курс по гитаре.
Подарок от PrimaNota.Ru, забирай!