PrimaNota.ru - самый крупный в мире бесплатный архив песенных текстов, аккордов, табулатур и нот


Gallagher, Rory - Brute Force And Ignorance - текст песни, таба, видео

Регистрация Запомнить меня
Войти через:  Facebook Google Twitter Vk Yandex Mail.ru

Gallagher, Rory - Brute Force And Ignorance - текст песни, таба, видео

Печатать
Просмотров: 103
This is not my Tab and I admit that Props go to unregisteres who actually tabbed this 
I just put it in for ASCII because the other one is in GP.

Whoever did this tel me and I will give you proper Props.

   Brute Force And Ignorance


                                                                                         
                     Rory Gallagher
Rory Gallagher

                                                               |-3-|
     E  S S S S S S S S S S S S  S S    E  S S S S S S S S S S S S S E
E||----------------------------------|------------------------------------|
B||----------------------------------|------------------------------------|
G||----------------------------------|------------------------------------|
D||-----5---3-5-3---3----------------|--5--L-5-6-L-7-L-L-5-7--------------|
A||---------------5---5-3---3--------|--3--L-3-4-L-5-L-L-3-5---3-5-3------|
E||--3--------------------6---6~-L-L-|-------------------------------6b~--|


  E  S S S S S S S S S S S S  S S
----------------------------------|
----------------------------------|
----------------------------------|
-----5---3-5-3---3----------------|
---------------5---5-3---3--------|
--3--------------------6---6~-L-L-|


                       (don't pick)
  E  S S S S S S S S   S           S   S  S S S
------------------------------------------------|
------------------------------------------------|
------------------------------------------------|
--5--L-5-6-L-7-L-L------------------------------|
--3--L-3-4-L-5-L-L-4S-(5)S---------4S-(5)-L-L-L-|
------------------------------------------------|


  E  S S S S S S S S S S S S  S S
----------------------------------|
----------------------------------|
----------------------------------|
-----5---3-5-3---3----------------|
---------------5---5-3---3--------|
--3--------------------6---6~-L-L-|


                       (don't pick)
  E  S S S S S S S S   S           S   S  S S S
------------------------------------------------|
------------------------------------------------|
------------------------------------------------|
--5--L-5-6-L-7-L-L-6---7-----------6---7--L-x---|
--3--L-3-4-L-5-L-L-4S-(5)S---------4S-(5)-L-x---|
------------------------------------------------|


                                       ^
                         |-3-|
  E  S S S S S S S S S S S S S E       H.           E  E
------------------------------------|---------------------|
------------------------------------|---------------------|
------------------------------------|--4------------L-----|
--5--L-5-6-L-7-L-L-5-7--------------|--5------------L-----|
--3--L-3-4-L-5-L-L-3-5---3-5-3------|--5------------L-----|
-------------------------------6b~--|--3------------L-----|


                    ^        ^        ^     ^  ^        ^        ^          ^
  E  E  E  E  E  E  E  E     E  E  E  E  E  E  E  E     E  E  E  Q    E  E  E
--------------------3--L--|--------------------3--L--|--2--L-----2----L--L--L--|
--------------------3--L--|--3--L--x--3--L--3--3--L--|--3--L--x--3----L--3--L--|
--0--L-----0--L--0--0--L--|--2--L--x--2--L--2--2--L--|--2--L--x--2----L--L--2--|
--0--L--x--0--L--0--0--L--|--0--L--x--0--L--0--L--L--|--0--L--x--0----L--L--L--|
--2--L--x--2--L--2--2--L--|--------------------------|-------------------------|
--------------------------|--------------------------|-------------------------|


  ^        ^                                   ^
  E  E  E  E  E  E  E  E     E  E  E  E  E  E  E  E
--3--L-----3--L--L--L--L--|--------------------------|
--3--L-----3--L--L--0--1--|--------------------------|
--0--L-----0--L--0--L--0--|--0--L-----0--L--0--0--L--|
--0--L--x--0--L-----L--L--|--0--L--x--0--L--0--0--L--|
--2--L--x--2--L--L--L--L--|--2--L--x--2--L--2--2--L--|
--------------------------|--------------------------|


  ^        ^     ^  ^        ^        ^          ^
  E  E  E  E  E  E  E  E     E  E  E  Q    E  E  E
--------------------3--L--|-------------------------|
--3--L--x--3--L--3--3--L--|--3--L--x--3----L--3--L--|
--2--L--x--2--L--2--2--L--|--2--L--x--2----L--L--2--|
--0--L--x--0--L--0--L--L--|--0--L--x--0----L--L--L--|
--------------------------|-------------------------|
--------------------------|-------------------------|


  ^        ^                                         ^
  E  E  E  E.  S S  S S  S S  S    E  E  E  E  E  E  E  E
--------------------------------|--------------------------|
--3--L-----3---L-2s-3-3---------|--------------------3--L--|
--0--L-----0---0-3s-4-2p-0------|--0--L-----0--L--0--0--L--|
--0--L--x--0---L----L------2p-0-|--0--L--x--0--L--0--0--L--|
--2--L--x--2---L-L--L-----------|--2--L--x--2--L--2--2--L--|
--------------------------------|--------------------------|


  ^        ^     ^  ^        ^        ^
  E  E  E  E  E  E  E  E     E  E  E  Q    E  E  E
--------------------3--L--|-------------------------|
--3--L--x--3--L--3--3--L--|--3--L--x--3----L--L--L--|
--2--L--x--2--L--2--2--L--|--2--L--x--2----L--L--L--|
--0--L--x--0--L--0--L--L--|--0--L--x--0----L--L--L--|
--------------------------|-------------------------|
--------------------------|-------------------------|


  ^        ^                                      ^
  E  E  E  E  E  S S S S S S    E  E  E  E  E  E  E  E
--3--L-----3--L--------------|--------------------------|
--3--L-----3--L--------------|--------------------3--L--|
--0--L-----0--L------0-2-0-L-|--0--L-----0--L--0--0--L--|
--0--L--x--0--L--0-2---------|--0--L--x--0--L--0--0--L--|
--2--L--x--2--L--------------|--2--L--x--2--L--2--2--L--|
-----------------------------|--------------------------|


  ^        ^     ^  ^        ^        ^                ^        ^
  E  E  E  E  E  E  E  E     E  E  E  Q    E  E  E     E  E  E  E  E  E  E  E
--------------------3--L--|-------------------------|--------------------------|
--3--L--x--3--L--3--3--L--|--3--L--x--3----L--L--L--|--3--L-----3--L--L--L--L--|
--2--L--x--2--L--2--2--L--|--2--L--x--2----L--L--L--|--0--L-----0--L--L--L--L--|
--0--L--x--0--L--0--L--L--|--0--L--x--0----L--L--L--|--0--L--x--0--L-----L--L--|
--------------------------|-------------------------|--2--L--x--2--L--L--L--L--|
--------------------------|-------------------------|--------------------------|


  T T T T T T T T T T T T T T T T T T T T T T T T T T T T T T T T
--7-7-7-7-7-7-7-7-7-7-7-7-7-7-7-7-7-7-7-7-5-5-5-5-5-5-3-3-3-3-3-3-|
--8-8-8-8-8-8-8-8-8-8-8-8-8-8-8-8-8-8-8-8-7-7-7-7-7-7-5-5-5-5-5-5-|
------------------------------------------------------------------|
------------------------------------------------------------------|
------------------------------------------------------------------|
------------------------------------------------------------------|


  T T T T T T T T T T T T T T T T T T T T T T T T T T  T T T T T  T
--2-2-2-2-2-2-3-3-3-3-3-3-5-5-5-5-5-5-5-5-5-5-5-5-5-5\-L-L-L-L-3s-L-|
--3-3-3-3-3-3-5-5-5-5-5-5-7-7-7-7-7-7-7-7-7-7-7-7-7-7\-L-L-L-L-5s-L-|
--------------------------------------------------------------------|
--------------------------------------------------------------------|
--------------------------------------------------------------------|
--------------------------------------------------------------------|


  T T T T T T T T T T T T  T  T  T  T  T  T  T  T  T  T  T  T  T  T T T T T T T
--5-5-5-5-5-5-7-7-7-7-7-7--8--8--8--8--8--8--8--8--8--8--8--8--8--8-L-L-L-L-----|
--7-7-7-7-7-7-8-8-8-8-8-8-10-10-10-10-10-10-10-10-10-10-10-10-10-10-L-L-L-L-----|
--------------------------------------------------------------------------------|
--------------------------------------------------------------------------------|
--------------------------------------------------------------------------------|
--------------------------------------------------------------------------------|


  T T T T T T  T  T  T  T  T  T  T  T  T  T  T  T  T  T  T  T  T  T  T  T T T T
--7-7-7-7-7-7--8--8--8--8--8--8-10-10-10-10-10-10-10-10-10-10-10-10-10-10-L-L-L-|
--8-8-8-8-8-8-10-10-10-10-10-10-12-12-12-12-12-12-12-12-12-12-12-12-12-12-L-L-L-|
--------------------------------------------------------------------------------|
--------------------------------------------------------------------------------|
--------------------------------------------------------------------------------|
--------------------------------------------------------------------------------|


  T T T T T T  T  T  T  T  T  T  T  T  T  T  T  T  T  T  T  T  T  T  T  T T T T
--7-7-7-7-7-7--8--8--8--8--8--8-10-10-10-10-10-10-10-10--8--8--8--8--8--8-7-7-7-|
--8-8-8-8-8-8-10-10-10-10-10-10-12-12-12-12-12-12-12-12-10-10-10-10-10-10-8-8-8-|
--------------------------------------------------------------------------------|
--------------------------------------------------------------------------------|
--------------------------------------------------------------------------------|
--------------------------------------------------------------------------------|


  T T T T T T T T T T T T T T T T T T T T T T S   S  S E
--5-5-5-5-5-5-3-3-3-3-3-3-2-2-2-2-2-2-2-2-2-2-2s-19s-2----|
--7-7-7-7-7-7-5-5-5-5-5-5-3-3-3-3-3-3-3-3-3-3-------------|
----------------------------------------------------------|
----------------------------------------------------------|
----------------------------------------------------------|
----------------------------------------------------------|


    E    E    E  S   S   E      Q    E     H        E  E  S S E
----------------------------------------|------------------------|
----------------------------------------|------------------------|
-------<>4------------------------------|------------------------|
--<>5-------<>5--L-<>5-<>5brb~--L----L--|------------------------|
----------------------------------------|--5--------L-----2-3-5--|
----------------------------------------|--3--------L--3---------|


                                       ^
  E  E  E.  S E  E  E  S S    E  E  E  E  S S  S S  S S S  S
---------------------------|---------------------------------|
---------------------------|---------------------------------|
--2--2--2--------2--2--L---|--0--L--L--2--L------0h-2-0------|
--2--2--2---x-x--2--2--L-2-|--0--0--0--2--L-0h-2--------2p-0-|
--0--0--0---x-x--0--0--L-0-|--2--0--2--0--L------------------|
---------------------------|--3--L--L------------------------|


                                      ^
  E  E  E.  S E  E  E  E     E  E  E  E   E  S  S S S  S S
--------------------------|--------------------------------|
--------------------------|--------------------------------|
--2--2--2-----2--2--2--L--|--0--L--L--0---L-------0-2p-0---|
--2--2--2---x-2--2--2--L--|--0--0--0--2---L--0h-2--------2-|
--0--0--0---x-0--0--0--L--|--2--0--2--3~--L----------------|
--------------------------|--3--L--L-----------------------|


                                      ^
  E  E  E.  S E  E  E  E     E  E  E  E  S S S  S S  S S S
--------0-----------0--L--|--------------------------------|
--------1-----------1--L--|------------------1p-0----------|
--------2-----------2--L--|--0--L--L--2--L-L------2p-0-----|
--2--2--2---x-2--2--2--L--|--0--0--0--2--L-L-L---------2-L-|
--0--0--0---x-0--0--0--L--|--2--0--2--0--L-L----L-L--------|
--------------------------|--3--L--L-----------------------|


                                      ^
  E  E  E.  S E  E  E  E     E  E  E  E   E.  S S. T S. T
--------------------------|---------------------2---------|
--------------------------|-----------1---L-----3----3----|
--2--2--2-----2--2--2--L--|--0--L--L--0---L-----2----2----|
--2--2--2---x-2--2--2--L--|--0--0--0--2---L-----0----0----|
--0--0--0---x-0--0--0--L--|--2--0--2--3~--L---------------|
--------------------------|--3--L--L----------------------|


                                                  ^
  E  E  E  E  Q    S. T S. T    E  E  E  E  E  E  E  E
-------------------2---------|--------------------------|
--3--L-----3--L----3----3----|--------------------------|
--0--L-----0--L----2----2----|--0--L-----0--L--0--0--0--|
--0--L--x--0--L----0----0----|--0--L--x--0--L--0--0--0--|
--------x--------------------|--2--L--x--2--L--2--2--2--|
--3--L-----3--L--------------|--------------------------|


  ^        ^     ^  ^        ^        ^          ^
  E  E  E  E  E  E  E  E     E  E  E  Q    E  E  E
--------------------3--L--|--2--L-----2-------L--L--|
--3--L--x--3--L--3--3--L--|--3--L--x--3----3-----L--|
--2--L--x--2--L--2--2--L--|--2--L--x--2----L--2-----|
--0--L--x--0--L--0--L--L--|--0--L--x--0----L--L--0--|
--------------------------|-------------------------|
--------------------------|-------------------------|


  ^        ^                                         ^
  E  E  E  E.  S S  S S  S S  S    E  E  E  E  E  E  E  E
--------------------------------|--------------------------|
--3--L-----3---L-2s-3-3---------|-----------------3--------|
--0--L-----0---0-3s-4-2p-0------|--0--L-----0--L--0--0--L--|
--0--L--x--0---L----L------2p-0-|--0--L--x--0--L--0--0--L--|
--2--L--x--2---L-L--L-----------|--2--L--x--2--L--2--2--L--|
--------------------------------|--------------------------|


  ^        ^     ^  ^        ^        ^          ^
  E  E  E  E  E  E  E  E     E  E  E  Q    E  E  E
--------------------3--L--|-------------------------|
--3--L--x--3--L--3--3--L--|--3--L--x--3----L--3--L--|
--2--L--x--2--L--2--2--L--|--2--L--x--2----L--L--2--|
--0--L--x--0--L--0--L--L--|--0--L--x--0----L--L--L--|
--------------------------|-------------------------|
--------------------------|-------------------------|


  ^        ^                                      ^
  E  E  E  E.  S S S S S S S    E  E  E  E  E  E  E  E
-----------------------------|--------------------------|
--3--L-----3---L-L-L-L-L-L-L-|--------------------3--L--|
--0--L-----0---L-L-L-L-L-L-L-|--0--L-----0--L--0--0--L--|
--0--L--x--0---L-L-L-L-L-L-L-|--0--L--x--0--L--0--0--L--|
--2--L--x--2---L-L-L-L-L-L-L-|--2--L--x--2--L--2--2--L--|
-----------------------------|--------------------------|


  ^        ^     ^  ^        ^        ^
  E  E  E  E  E  E  E  E     E  E  E  Q    E  E  E
--------------------3--L--|-------------------------|
--3--L--x--3--L--3--3--L--|--3--L--x--3----L--L--L--|
--2--L--x--2--L--2--2--L--|--2--L--x--2----L--L--L--|
--0--L--x--0--L--0--L--L--|--0--L--x--0----L--L--L--|
--------------------------|-------------------------|
--------------------------|-------------------------|


  ^        ^                                      ^
  E  E  E  E  E  S S S S S S    E  E  E  E  E  E  E  E
--3--L-----3--L------3-L-L-L-|--------------------------|
--3--L-----3--L------3-L-L-L-|--------------------3--L--|
--0--L-----0--L------0-L-L-L-|--0--L-----0--L--0--0--L--|
--0--L--x--0--L--x---0-L-L-L-|--0--L--x--0--L--0--0--L--|
--2--L--x--2--L--x---2-L-L-L-|--2--L--x--2--L--2--2--L--|
-----------------------------|--------------------------|


  ^        ^     ^  ^        ^        ^
  E  E  E  E  E  E  E  E     E  E  E  Q    E  E  E
--------------------3--L--|-------------------------|
--3--L--x--3--L--3--3--L--|--3--L--x--3----L--L--L--|
--2--L--x--2--L--2--2--L--|--2--L--x--2----L--L--L--|
--0--L--x--0--L--0--L--L--|--0--L--x--0----L--L--L--|
--------------------------|-------------------------|
--------------------------|-------------------------|


  ^        ^                                      ^
  E  E  E  E  E  S S S S S S    E  E  E  E  E  E  E  E
--3--L-----3--L------3-L-L-L-|--------------------------|
--3--L-----3--L------3-L-L-L-|--------------------3--L--|
--0--L-----0--L------0-L-L-L-|--0--L-----0--L--0--0--L--|
--0--L--x--0--L--x---0-L-L-L-|--0--L--x--0--L--0--0--L--|
--2--L--x--2--L--x---2-L-L-L-|--2--L--x--2--L--2--2--L--|
-----------------------------|--------------------------|


  ^        ^     ^  ^        ^        ^
  E  E  E  E  E  E  E  E     E  E  E  Q    E  E  E
--------------------3--L--|-------------------------|
--3--L--x--3--L--3--3--L--|--3--L--x--3----L--L--L--|
--2--L--x--2--L--2--2--L--|--2--L--x--2----L--L--L--|
--0--L--x--0--L--0--L--L--|--0--L--x--0----L--L--L--|
--------------------------|-------------------------|
--------------------------|-------------------------|


  ^        ^
  E  E  E  E  E  E  S S S S
--3--L-----3--L-----3-L-L-L-|
--3--L-----3--3--3--3-L-3-L-|
--0--L-----0--0--0--0-L-0-L-|
--0--L--x--0--0--0--0-L-0-L-|
--2--L--x--2--2--2--2-L-2-L-|
----------------------------|


  T T T T T T T T T T T T T T T T T T T T T T T T T T T T T T T T
--7-7-7-7-7-7-7-7-7-7-7-7-7-7-7-7-7-7-7-7-5-5-5-5-5-5-3-3-3-3-3-3-|
--8-8-8-8-8-8-8-8-8-8-8-8-8-8-8-8-8-8-8-8-7-7-7-7-7-7-5-5-5-5-5-5-|
------------------------------------------------------------------|
------------------------------------------------------------------|
------------------------------------------------------------------|
------------------------------------------------------------------|


  T T T T T T T T T T T T T T T T T T T T T T T T T T  T T T T T  T
--2-2-2-2-2-2-3-3-3-3-3-3-5-5-5-5-5-5-5-5-5-5-5-5-5-5\-L-L-L-L-3s-L-|
--3-3-3-3-3-3-5-5-5-5-5-5-7-7-7-7-7-7-7-7-7-7-7-7-7-7\-L-L-L-L-5s-L-|
--------------------------------------------------------------------|
--------------------------------------------------------------------|
--------------------------------------------------------------------|
--------------------------------------------------------------------|


  T T T T T T T T T T T T  T  T  T  T  T  T  T  T  T  T  T  T  T  T T T T T T T
--5-5-5-5-5-5-7-7-7-7-7-7--8--8--8--8--8--8--8--8--8--8--8--8--8--8-L-L-L-L-----|
--7-7-7-7-7-7-8-8-8-8-8-8-10-10-10-10-10-10-10-10-10-10-10-10-10-10-L-L-L-L-----|
--------------------------------------------------------------------------------|
--------------------------------------------------------------------------------|
--------------------------------------------------------------------------------|
--------------------------------------------------------------------------------|


  T T T T T T  T  T  T  T  T  T  T  T  T  T  T  T  T  T  T  T  T  T  T  T T T T
--7-7-7-7-7-7--8--8--8--8--8--8-10-10-10-10-10-10-10-10-10-10-10-10-10-10-L-L-L-|
--8-8-8-8-8-8-10-10-10-10-10-10-12-12-12-12-12-12-12-12-12-12-12-12-12-12-L-L-L-|
--------------------------------------------------------------------------------|
--------------------------------------------------------------------------------|
--------------------------------------------------------------------------------|
--------------------------------------------------------------------------------|


   T  T  T  T  T  T  T  T  T  T  T  T T T T T T T T T  T  T  T  T  T  T T T T T
--10-10-10-10-10-10--8--8--8--8--8--8-7-7-7-7-7-7-7-7--8--8--8--8--8--8-7-7-7-7-|
--12-12-12-12-12-12-10-10-10-10-10-10-8-8-8-8-8-8-8-8-10-10-10-10-10-10-8-8-8-8-|
--------------------------------------------------------------------------------|
--------------------------------------------------------------------------------|
--------------------------------------------------------------------------------|
--------------------------------------------------------------------------------|


  T T T T T T T T T T T T T T T T T T T T T T T T T T T T T T T T
--5-5-5-5-5-5-3-3-3-3-3-3-2-2-2-2-2-2-2-2-2-2-2-2-2-2-2-2-2-2-2-2-|
--7-7-7-7-7-7-5-5-5-5-5-5-3-3-3-3-3-3-3-3-3-3-3-3-3-3-3-3-3-3-3-3-|
------------------------------------------------------------------|
------------------------------------------------------------------|
------------------------------------------------------------------|
------------------------------------------------------------------|


  T T T T T T T T T T T T T T T T T T T T T T T T T T T T T T T T
--2-2-2-2-2-2-3-3-3-3-3-3-2-2-2-2-2-2-2-2-2-2-2-2-0-0-0-0-0-0-0-0-|
--3-3-3-3-3-3-5-5-5-5-5-5-3-3-3-3-3-3-3-3-3-3-3-3-1-1-1-1-1-1-1-1-|
------------------------------------------------------------------|
------------------------------------------------------------------|
------------------------------------------------------------------|
------------------------------------------------------------------|


  Q    Q    Q     E.   S    Q    Q.     E  X  S.S. T.
-------------------------|----------------------------|
--3----L----L----13\---8-|----------------------------|
--0----L----L------------|--7----L------7----/9-7-----|
-------------------------|--5----L--------------------|
-------------------------|----------------------------|
-------------------------|----------------------------|


  E  S   S  E  E  E  E  E  E     E  E  S. T E   Q    E  S S
------------------------------|-----------------------------|
---------------7--L--L--L--L--|-------------7\--L-----------|
--7--L-9g7-/9-----------------|--7--L--9-------------9--7---|
------------------------------|-----------------------------|
------------------------------|-----------------------------|
------------------------------|-----------------------------|


                                     |---3--|
   Q     E  E  E  E  E   E     E  E  E  E   E   T   S.  S S  Q
----------------------------|-------------------------------15~----|
--12b----L--8--L--L------L--|--3--L-----8--12--12s-13s-12-8--------|
------------7--L--L--7\--L--|--------7-----------------------------|
---------------------5\--L--|--5--L--------------------------------|
----------------------------|--------------------------------------|
----------------------------|--3--L--------------------------------|


   Q      E    Q     Q      T S   T     E   S S E   S S E   S S S  S  S S
--14~----12~--10~----L----/10-L-/10-|--10\--8-8-8S--7-L-7S--5-5-5s-3s-0---|
------------------------------------|-----------------------------------3-|
------------------------------------|-------------------------------------|
------------------------------------|-------------------------------------|
------------------------------------|-------------------------------------|
------------------------------------|-------------------------------------|


  S. T E.   S S. T S S S. T S E   S    E  S  E  E  E  E.  E   E
------------------------------------|----------------------------|
--3---------------------------------|----------------------------|
--2b---2b---0-2b---0-L------0-----0-|--0-------------------------|
-----------------------3/-L---3/----|--0--3s-5--L--L--L---4\--0--|
------------------------------------|----------------------------|
------------------------------------|----------------------------|


            (don't pick note)
  S  S Q    E                 E  E  E  E     S  S S. S. S S S E   Q     S  S
------------------------------------------|----------------------------------|
-------7----7\----------------3--L--L-----|-------7-----5---x-5s--7~---------|
------------------------------------------|-----------------------------4\-0-|
--5s-7------------------------------------|--5s-7----------------------------|
------------------------------------------|----------------------------------|
------------------------------------------|----------------------------------|


    Q    S S E  E  E   T   S.  S.T
------------------------------------|
----------------------12s-13s-12-8/-|
--0g3----0---0--L--L----------------|
-----------3------------------------|
------------------------------------|
------------------------------------|


  |--3--|  |--3--|  |--3--|  |--3--|  |--3--|  |--3--|   |---3--|  |--3--|
  S  S  S  S  S  S  S  S  S  S  S  S  S  S  S  S  S  S   S  S   S  S  S  S
----19----19----19----19----19----19----19----19----19s----17S----15-----0-|
--L----20----20----20----20----20----20----20----20-----20-----20----19--L-|
---------------------------------------------------------------------------|
---------------------------------------------------------------------------|
---------------------------------------------------------------------------|
---------------------------------------------------------------------------|


   |---3--| |--3-|  |--3-|  |--3--|
   S   S  S S  S S  S S  S  S  S  S E  E  S S E
--14s--0-14-0-12-0-12-0-10-----L--L-L--L--L-------|
------10------10---10---10--L--L--L-L--L--L---7/--|
-------------------------7--L--L--L---------7-7/--|
--------------------------------------------------|
--------------------------------------------------|
--------------------------------------------------|


                                                         (don't rehit)
   |--3--|  |--3--|  |--3--|
   S  S  S  S  S  S  S  S  S H        E     Q    Q    E  Q             S S
--14----14----14----14-------------------|----------------------------------|
-----15----15----15----15~-L-L--------L--|--8----L----L--8\------------L----|
-----------------------14~-L-L--------L--|--7----L----L--7\------------L----|
------------------------0~-L-L--------L--|--5----L----L--5\------------L-3/-|
-----------------------------------------|----------------------------------|
-----------------------------------------|----------------------------------|


                                                            \1/
  E  S E   S E   S E   S E.   S     H.           E.   S     W
--------------------------------|-----------------------|---------------------|
--------------------------------|-----------------------|---------------------|
--0--0-----0-----0-----0-0\-----|-----------------------|---------------------|
-------3/----3/----3/---------0-|--/7------------7\---5-|--/7~----------------|
-------------------------3\-----|--/5------------5\---3-|--/5-----------------|
--------------------------------|-----------------------|---------------------|


   Q    S S Q.     Q        Q       E  H        E     Q       E  H        E
------------------------|--------------------------|-------------------------|
------------------------|--10br----12--8--------L--|--5pbr----7--------------|
------------------------|--------------------------|-------------7--------L--|
--/8----5---5------L----|--------------------------|-------------------------|
----------8-------------|--------------------------|-------------------------|
------------------------|--------------------------|-------------------------|


  Q      H.              E   E   E   E  E  E  E  E
----------------------|------7~--L---L--L--L--L--L--|-----|-----|-----|-----||
--5br-----------------|----------8~--L--L--L--L--L--|-----|-----|-----|-----||
---------7------------|--7~--L---L---L--L--L--L--L--|-----|-----|-----|-----||
----------------------|------L----------------------|-----|-----|-----|-----||
----------------------|-----------------------------|-----|-----|-----|-----||
----------------------|-----------------------------|-----|-----|-----|-----||
Добавлено: 16.07.2013
Другие материалы по этой песне:

Страница создана 11.04.2012
http://primanota.ru/gallagher-rory/brute-force-and-ignorance-chords.htm
Привет, Гость.
Предлагаем пройти революционный курс по гитаре.
Подарок от PrimaNota.Ru, забирай!