PrimaNota.ru - самый крупный в мире бесплатный архив песенных текстов, аккордов, табулатур и нот


Galileo Galilei - Imaginary Friends - бас-таба, видео

Регистрация Запомнить меня
Войти через:  Facebook Google Twitter Vk Yandex Mail.ru

Galileo Galilei - Imaginary Friends - бас-таба, видео

Печатать
Просмотров: 177
Уроки эстрадного вокала в Санкт-Петербурге
Tabbed by: Jake Normandin
E-mail: theclassifieduser@gmail.com

Tuning: E Standard

Imaginary Friends - Bass Tab
GALILEO GALILEI


Starts at 0:22
   |Intro
G  |----------------|----------------|----------------|----------------|
D  |4---4---4---4---|----------------|----------------|----------------|
A  |--------------4-|2---2---2---2-4-|--------------4-|--------------4-|
E  |----------------|----------------|2---2---2---2---|2---2---2---2---|

G  |----------------|----------------|----------------|----------------|
D  |4---4---4---4---|----------------|----------------|----------------|
A  |--------------4-|2---2---2---2-4-|----------------|----------------|
E  |----------------|----------------|2---2---2---2---|----------------|

   |Verse 1
G  |----------------|----------------|----------------|----------------|
D :|----------------|----------------|----------------|----------------|
A :|----------------|----------------|2---2---2---2---|2---2---2---2---|
E  |2---2---2---2---|2---2---2---2---|----------------|----------------|

G  |----------------|----------------|----------------|----------------|
D  |----------------|----------------|----------------|----------------|:
A  |1---1---1---1---|1---1---1---1---|----------------|----------------|: x2
E  |----------------|----------------|4---4---4---4---|4---4---4---4---|

   |Interlude
G  |----------------|----------------|----------------|----------------|
D  |4---4---4---4---|----------------|----------------|----------------|
A  |--------------4-|2---2---2---2-4-|--------------4-|--------------4-|
E  |----------------|----------------|2---2---2---2---|2---2---2---2---|

G  |----------------|----------------|----------------|----------------|
D  |4---4---4---4---|----------------|--4---4-------4-|----------------|
A  |--------------4-|2---2---2---2-4-|----------------|----------------|
E  |----------------|----------------|2---2---2---2---|----------------|

   |Pre-Chorus
G  |----------------|----------------|----------------|----------------|
D  |----------------|----------------|----------------|----------------|
A  |--------------4-|--------------4-|--------------4-|------------6\--|
E  |2---2---2---2---|2---2---2---2---|2---2---2---2---|2---2---2-------|

G  |----------------|----------------|----------------|----------------|
D  |----------------|----------------|----------------|----------------|
A  |2---2---2---2-4-|2---2---2---2-4-|2---2---2---2-4-|2---2---2---4-4-|
E  |----------------|----------------|----------------|----------------|

   |Chorus
G  |----------------|----------------|----------------|----------------|
D  |----------------|----------------|----------------|----------------|
A  |----------------|----------------|2-2---2---2---2-|--2---2---2---2-|
E  |--2---2---2---2-|--2---2---2---2-|----------------|----------------|

G  |----------------|----------------|----------------|----------------|
D  |----------------|----------------|----------------|----------------|
A  |4-4---4---4---4-|--4---4---4---4-|2-2---2---2---2-|--2---2---2---2-|
E  |----------------|----------------|----------------|----------------|

G  |----------------|----------------|----------------|----------------|
D  |----------------|----------------|----------------|----------------|
A  |----------------|----------------|2-2---2---2---2-|--2---2---2---2-|
E  |2-2---2---2---2-|--2---2---2---2-|----------------|----------------|

G  |----------------|----------------|----------------|----------------|
D  |----------------|----------------|----------------|----------------|
A  |4-4---4---4---4-|--4---4---4---4-|2-2---2---2---2-|4-4---4---4---4-|
E  |----------------|----------------|----------------|----------------|

   |Verse 2
G  |----------------|----------------|----------------|----------------|
D :|----------------|----------------|----------------|----------------|
A :|----------------|----------------|2---2---2---2---|2---2---2---2---|
E  |2---2---2---2---|2---2---2---2---|----------------|----------------|

G  |----------------|----------------|----------------|----------------|
D  |----------------|----------------|----------------|----------------|:
A  |1---1---1---1---|1---1---1---1---|----------------|----------------|: x2
E  |----------------|----------------|4---4---4---4---|4---4---4---4---|

   |Bridge
G  |----------------|----------------|----------------|----------------|
D  |----------------|----------------|----------------|----------------|
A  |----------------|----------------|----------------|------------6\--|
E  |2---2---2---2---|2---2---2---2---|2---2---2---2---|2---2---2-------|

G  |----------------|----------------|----------------|----------------|
D  |----------------|----------------|----------------|----------------|
A  |2-2---2---2---2-|--2---2---2---2-|--2---2---2---2-|--2---2---2---2-|
E  |----------------|----------------|----------------|----------------|

G  |----------------|----------------|----------------|----------------|
D  |----------------|----------------|----------------|----------------|
A  |4-4--4--4---4-4-|6-6--6--6---6-6\|2-2--2--2---2-2-|2-2--2--2---2-2-|
E  |----------------|----------------|----------------|----------------|

G  |----------------|----------------|----------------|----------------|
D  |----------------|----------------|----------------|----------------|
A  |4-4--4--4---4-4-|6-6--6--6---6-6-|----------------|2---2---4---4-4-|
E  |----------------|----------------|4-4--4--4---4-4-|----------------|

   |Chorus
G  |----------------|----------------|----------------|----------------|
D  |----------------|----------------|----------------|----------------|
A  |----------------|----------------|2-2---2---2---2-|--2---2---2---2-|
E  |--2---2---2---2-|--2---2---2---2-|----------------|----------------|

G  |----------------|----------------|----------------|----------------|
D  |----------------|----------------|----------------|----------------|
A  |4-4---4---4---4-|--4---4---4---4-|2-2---2---2---2-|--2---2---2---2-|
E  |----------------|----------------|----------------|----------------|

G  |----------------|----------------|----------------|----------------|
D  |----------------|----------------|----------------|----------------|
A  |----------------|----------------|2-2---2---2---2-|--2---2---2---2-|
E  |2-2---2---2---2-|--2---2---2---2-|----------------|----------------|

G  |----------------|----------------|----------------|----------------|
D  |----------------|----------------|----------------|----------------|
A  |4-4---4---4---4-|--4---4---4---4-|2-2---2---2---2-|4-4---4---4---4-|
E  |----------------|----------------|----------------|----------------|

   |Outro
G  |----------------|----------------|----------------|----------------|
D  |4---4---4---4---|----------------|----------------|----------------|
A  |--------------4-|2---2---2---2-4-|--------------4-|--------------4-|
E  |----------------|----------------|2---2---2---2---|2---2---2---2---|

G  |----------------|----------------|----------------|----------------|
D  |4---4---4---4---|----------------|----------------|4---4---4---4---|
A  |--------------4-|2---2---2---2-4-|----------------|----------------|
E  |----------------|----------------|2---2---2---2---|----------------|

   |END


| /  slide up
| \  slide down
| h  hammer-on
| p  pull-off
| ~  vibrato
| +  harmonic
| x  Mute note
===============================================================================
Добавлено: 26.10.2015
Другие материалы по этой песне:
  • Аккорды и текст

Страница создана 26.10.2015
http://primanota.ru/galileo-galilei/imaginary-friends-chords.htm
Привет, Гость.
Предлагаем пройти революционный курс по гитаре.
Подарок от PrimaNota.Ru, забирай!