PrimaNota.ru - самый крупный в мире бесплатный архив песенных текстов, аккордов, табулатур и нот


Galantis - Runaway U I - аккорды и текст, видео

Регистрация Запомнить меня
Войти через:  Facebook Google Twitter Vk Yandex Mail.ru

Galantis - Runaway U I - аккорды и текст, видео

Печатать
Просмотров: 442
Уроки эстрадного вокала в Санкт-Петербурге
Runaway U I
Galantis
Verse #1: 

A#m         C#
Think I can fly
A#m            C#
Think I can fly when I'm with you
A#m         D#
My arms are wide
A#m          D#
Catching fire as the wind blows
A#m             C#              A#m
I know that I'm rich enough for pride
                C#              A#m
I see a billion dollars in your eyes
              D#                A#m                
Even if we're strangers 'til we die


Chorus #1:

    F#            A#m    G#            Fm
e|--2-2-2-2-2-2---6--6---4-4-4-4-4-4---1--1----|
B|--2-2-2-2-2-2---6--6---4-4-4-4-4-4---1--1----|
G|--3-3-3-3-3-3---6--6---5-5-5-5-5-5---1--1----| 
D|--4-4-4-4-4-4---8--8---6-6-6-6-6-6---3--3----|
A|--4-4-4-4-4-4---8--8---6-6-6-6-6-6---3--3----|
E|--2-2-2-2-2-2---6--6---4-4-4-4-4-4---1--1----|

           F#               
I wanna run away
A#m     G#
I wanna run away
Fm       F#                      
Anywhere out this place
A#m     G#
I wanna run away
Fm           F#          
Just you and I, I, I, I, I
A#m     G#
You and I, I, I, I, I
Fm      F#                    
You and I, I, I, I, I
A#m     G#
You and I, I, I, I, I
Fm           F#
Just you and I


Instrumental:

    F#            A#m    G#            Fm
e|--2-2-2-2-2-2---6--6---4-4-4-4-4-4---1--1----|
B|--2-2-2-2-2-2---6--6---4-4-4-4-4-4---1--1----|
G|--3-3-3-3-3-3---6--6---5-5-5-5-5-5---1--1----| 
D|--4-4-4-4-4-4---8--8---6-6-6-6-6-6---3--3----|
A|--4-4-4-4-4-4---8--8---6-6-6-6-6-6---3--3----|
E|--2-2-2-2-2-2---6--6---4-4-4-4-4-4---1--1----|

    F#            A#m    G#            Fm
e|--2-2-2-2-2-2---6--6---4-4-4-4-4-4---1--1----|
B|--2-2-2-2-2-2---6--6---4-4-4-4-4-4---1--1----|
G|--3-3-3-3-3-3---6--6---5-5-5-5-5-5---1--1----| 
D|--4-4-4-4-4-4---8--8---6-6-6-6-6-6---3--3----|
A|--4-4-4-4-4-4---8--8---6-6-6-6-6-6---3--3----|
E|--2-2-2-2-2-2---6--6---4-4-4-4-4-4---1--1----|

Chorus #2:

Fm           F#          
Just you and I, I, I, I, I
A#m     G#
You and I, I, I, I, I
Fm      F#                    
You and I, I, I, I, I
A#m     G#
You and I, I, I, I, I
Fm           F#
Just you and I

Bridge:

A#m
   Uuuuuu 
C#
   Uuuuuu 
A#m
   Uuuuuu
C#
   Uuuuuu


Verse 2
A#m     C#
I wanna run
A#m                  C#           
Chase the morning sun when I'm with you
A#m         D#     
Give it all away
A#m          D#
Catching fire as the wind blows
A#m             C#              A#m
I know that I'm rich enough for pride
                C#              A#m
I see a billion dollars in your eyes
              D#                A#m                
Even if we're strangers 'til we die

Ending: 

Chorus #1
Instrumental
Chorus #2
Instrumental
Bridge
Добавлено: 01.12.2015
Другие материалы по этой песне:
  • Аккорды и текст

Страница создана 01.12.2015
http://primanota.ru/galantis/runaway-u-i-chords.htm
Привет, Гость.
Предлагаем пройти революционный курс по гитаре.
Подарок от PrimaNota.Ru, забирай!