PrimaNota.ru - самый крупный в мире бесплатный архив песенных текстов, аккордов, табулатур и нот


Galactic - Go Go - бас-таба, видео

Регистрация Запомнить меня
Войти через:  Facebook Google Twitter Vk Yandex Mail.ru

Galactic - Go Go - бас-таба, видео

Печатать
Просмотров: 102
Galactic - Go Go (bass)
Tabbed by James Denness  jd@nosignal.net>

Artist: Galactic (aka Galactic Funk)
Title: Go Go
Album: Coolin' Off (Evangeline, 1998)

This is the framework of the song, play around with the sequence a bit to
add some variety.

Try replacing the 12\10 with a 12-h14 on the G string.

h = hammer on
r = rest 1 beat
| = beat mark
\ = slide


   |  |           |     |            |  |           |      |
G ---------------------------------|-----------------------------------|
D ----12---12-h14--------12-12-h14-|----12---12-h14---------12--12-h14-|
A ---------------------------------|-----------------------------------|
E -12----------------12------------|-12-----------------12-------------|

   |  |           |     |            |  |           |       |
G ---------------------------------|-----------------12-12--12---12\10-|
D ----12---12-h14--------12-12-h14-|----12---12-h14--------------------|
A ---------------------------------|-----------------------------------|
E -12----------------12------------|-12--------------------------------|

   |  |           |     |            |  |           |       |
G ---------------------------------|-----------------------------------|
D ----12---12-h14--------12-12-h14-|----12---12-h14-------------12-h14-|
A ---------------------------------|-----------------------------------|
E -12----------------12------------|-12-----------------12---12--------|

   |  |           |     |            |        |       |        |
G ---------------------------------|-----------------------------------|
D ----12---12-h14--------12-12-h14-|----------12--12--h14--------------|
A ---------------------------------|-----------------------------------|
E -12----------------12------------|-12--12----------------------------|

   |  |           |     |            |  |           |      |
G ---------------------------------|-----------------------------------|
D ----12---12-h14--------12-12-h14-|----12---12-h14---------12--12-h14-|
A ---------------------------------|-----------------------------------|
E -12----------------12------------|-12-----------------12-------------|

   |  |           |     |            |  |           |       |
G ---------------------------------|-----------------12-12--12---12\10-|
D ----12---12-h14--------12-12-h14-|----12---12-h14--------------------|
A ---------------------------------|-----------------------------------|
E -12----------------12------------|-12--------------------------------|

   |  |           |     |            |  |           |       |
G ---------------------------------|-----------------------------------|
D ----12---12-h14--------12-12-h14-|----12---12-h14-------------12-h14-|
A ---------------------------------|-----------------------------------|
E -12----------------12------------|-12-----------------12---12--------|

   |  |           |     |            |       |        |      |
G ---------------------------------|-----------------------------------|
D ----12---12-h14--------12-12-h14-|-----------12-12--14--12-----------|
A ---------------------------------|-------------------------14--10----|
E -12----------------12------------|-12--12----------------------------|

   |     |      ||   |     |      ||   |      |     ||   |      |     ||r
G ----------------|-----------------|-----------------|----------------|
D ----------------|-----------------|-----------------|----------------|
A -5--5----3----5-|--5--5----3----5-|--5--5----3----5-|--5--5----3----5|
E ----------------|-----------------|-----------------|----------------|

   |  |           |     |            |  |           |      |
G ---------------------------------|-----------------------------------|
D ----12---12-h14--------12-12-h14-|----12---12-h14---------12--12-h14-|
A ---------------------------------|-----------------------------------|
E -12----------------12------------|-12-----------------12-------------|

   |  |           |     |            |  |           |       |
G ---------------------------------|-----------------12-12--12---12\10-|
D ----12---12-h14--------12-12-h14-|----12---12-h14--------------------|
A ---------------------------------|-----------------------------------|
E -12----------------12------------|-12--------------------------------|

   |  |           |     |            |  |           |       |
G ---------------------------------|-----------------------------------|
D ----12---12-h14--------12-12-h14-|----12---12-h14-------------12-h14-|
A ---------------------------------|-----------------------------------|
E -12----------------12------------|-12-----------------12---12--------|

   |  |           |     |            |       |        |      |
G ---------------------------------|-----------------------------------|
D ----12---12-h14--------12-12-h14-|-----------12-12--14--12-----------|
A ---------------------------------|-------------------------14--10----|
E -12----------------12------------|-12--12----------------------------|

   |     |      ||   |     |      ||   |      |     ||   |      |     ||r
G ----------------|-----------------|-----------------|----------------|
D ----------------|-----------------|-----------------|----------------|
A -5--5----3----5-|--5--5----3----5-|--5--5----3----5-|--5--5----3----5|
E ----------------|-----------------|-----------------|----------------|

   |       |       |      |          |     |     |     |
G ---------------------------------|--------------------------|
D ---------------------------------|--------------------------|
A -7-------5-----------------------|-7--7--5--5---------------|
A -----------------7------5-h3-0---|-------------7--7--5-h3-0-| [repeat x4]

   |     |      ||   |     |      ||   |      |     ||   |      |     ||r
G ----------------|-----------------|-----------------|----------------|
D ----------------|-----------------|-----------------|----------------|
A -5--5----3----5-|--5--5----3----5-|--5--5----3----5-|--5--5----3----5|
E ----------------|-----------------|-----------------|----------------|

   |       |       |      |          |     |     |     |
G ---------------------------------|--------------------------|
D ---------------------------------|--------------------------|
A -7-------5-----------------------|-7--7--5--5---------------|
A -----------------7------5-h3-0---|-------------7--7--5-h3-0-| [repeat x4]


   |     |      |         |        |        |        |        |
G ------------------------------------------------------------|
D ------------------------------------------------------------|
A -5--5----3----5---------------------------------------------|
E ------------------------------------------------------------| [repeat x4]

   |  |           |     |            |  |           |      |
G ---------------------------------|-----------------------------------|
D ----12---12-h14--------12-12-h14-|----12---12-h14---------12--12-h14-|
A ---------------------------------|-----------------------------------|
E -12----------------12------------|-12-----------------12-------------|

   |  |           |     |            |  |           |       |
G ---------------------------------|-----------------12-12--12---12\10-|
D ----12---12-h14--------12-12-h14-|----12---12-h14--------------------|
A ---------------------------------|-----------------------------------|
E -12----------------12------------|-12--------------------------------|

   |  |           |     |            |  |           |       |
G ---------------------------------|-----------------------------------|
D ----12---12-h14--------12-12-h14-|----12---12-h14-------------12-h14-|
A ---------------------------------|-----------------------------------|
E -12----------------12------------|-12-----------------12---12--------|

   |  |           |     |            |       |        |      |
G ---------------------------------|-----------------------------------|
D ----12---12-h14--------12-12-h14-|-----------12-12--14--12-----------|
A ---------------------------------|-------------------------14--10----|
E -12----------------12------------|-12--12----------------------------|

   |     |      ||   |     |      ||   |      |     ||   |      |     ||r
G ----------------|-----------------|-----------------|----------------|
D ----------------|-----------------|-----------------|----------------|
A -5--5----3----5-|--5--5----3----5-|--5--5----3----5-|--5--5----3----5|
E ----------------|-----------------|-----------------|----------------|
     
Добавлено: 23.09.2013
Другие материалы по этой песне:
  • Аккорды и текст

Страница создана 23.09.2013
http://primanota.ru/galactic/go-go-chords.htm
Привет, Гость.
Предлагаем пройти революционный курс по гитаре.
Подарок от PrimaNota.Ru, забирай!