PrimaNota.ru - самый крупный в мире бесплатный архив песенных текстов, аккордов, табулатур и нот


Galactic - Funky Bird - бас-таба, видео

Регистрация Запомнить меня
Войти через:  Facebook Google Twitter Vk Yandex Mail.ru

Galactic - Funky Bird - бас-таба, видео

Печатать
Просмотров: 109
Galactic - Funky Bird (bass)
Tabbed by James Denness  jd@nosignal.net>

Artist: Galactic (aka Galactic Funk)
Title: Funky Bird
Album: Coolin' Off (Evangeline, 1998)

h = hammer on
r = rest 1 beat
| = beat mark
\ = slide


   |        |       |      |         |        |       |      |
G --------------------------------|------------------------------------|
D --------------------------------|------------------------------------|
A -6-h4---6---4------------4------|--6-h4---6---4------------4---------|
E ------6---------1-2-1-2---------|-------6---------1-2-1-2------------|

   |        |       |      |         |        |       |        |
G --------------------------------|------------------------------------|
D --------------------------------|------------------------------------|
A -6-h4---6---4------------4------|--6-h4---6---4-------------------4--|
E ------6---------1-2-1-2---------|-------6---------1-2-1-2------------|

[repeat x4]

   |    |       |     |     |    |       |     |
G ------------------------|--------------------------|
D ------------------------|--------------------------|
A -6-------6--6-------4---|-6-------6--6-------4--4--|
E ------------------------|--------------------------| [repeat x2]

   |     |     |     |      |     |      |     |
G ------8--8----8---------|------8--8-----8----------|
D ------------------------|--------------------------|
A -6--6------6-----6\4--4-|-6--6-------6-----6\4--4--|
E ------------------------|--------------------------| [repeat x2]

   |     |     |     |      |     |     |     |
G ------------------------|--------------------------|
D ------------------------|--------------------------|
A -6----------4-----------|-6----------4-------------|
E ------------------------|--------------------------| [repeat x3]

   |     |     |     |      |     |    |    |
G ------------------------|-----------------|
D ------------------------|-----------------| straight into
A -6----------4-----------|-6---6---5---4---| next section
E ------------------------|-----------------| on 4th beat

   |    |       |    |      |    |       |    |
G ------------------------|--------------------------|
D ------------------------|--------------------------|
A -3--------1--1--------1-|-3--------1--1--------1---|
E --------------------3---|--------------------3---3-| [repeat x4]

   |     |     |     |      |     |     |     |
G ------------------------|--------------------------|
D ------------------------|--------------------------|
A -6----------4-----------|-6----------4--------4----|
E ------------------------|--------------------------| [repeat x10]

   |    |       |    |      |    |       |    |
G ------------------------|--------------------------|
D ------------------------|--------------------------|
A -3--------1--1--------1-|-3--------1--1--------1---|
E --------------------3---|--------------------3---3-| [repeat x2]

   |     |     |     |      |     |     |     |
G ------------------------|--------------------------|
D ------------------------|--------------------------|
A -6----------4-----------|-6----------4--------4----|
E ------------------------|--------------------------| [repeat x8]


   |        |       |      |         |        |       |      |
G --------------------------------|------------------------------------|
D --------------------------------|------------------------------------|
A -6-h4---6---4------------4------|--6-h4---6---4------------4---------|
E ------6---------1-2-1-2---------|-------6---------1-2-1-2------------|

   |        |       |      |         |        |       |        |
G --------------------------------|------------------------------------|
D --------------------------------|------------------------------------|
A -6-h4---6---4------------4------|--6-h4---6---4-------------------4--|
E ------6---------1-2-1-2---------|-------6---------1-2-1-2------------|

   |        |       |      |         |        |       |      |
G --------------------------------|------------------------------------|
D --------------------------------|------------------------------------|
A -6-h4---6---4------------4------|--6-h4---6---4------------4---------|
E ------6---------1-2-1-2---------|-------6---------1-2-1-2------------|

   |        |       |      |         |        |       |        |
G --------------------------------|------------------------------------|
D --------------------------------|------------------------------------|
A -6-h4---6---4------------4------|--6-h4---6---4-------------------4--|
E ------6---------1-2-1-2---------|-------6---------1-2-1-2------------|
   |        |       |      |         |        |       |      |
G --------------------------------|------------------------------------|
D --------------------------------|------------------------------------|
A -6-h4---6---4------------4------|--6-h4---6---4------------4---------|
E ------6---------1-2-1-2---------|-------6---------1-2-1-2------------|

   |        |       |      |         | |       | |       | |     | |
G --------------------------------|------------------------------------|
D --------------------------------|------------------------------------|
A -6-h4---6---4----------------4-5|-6---6-5--4----4-5-6-----6-5-4---4-5|
E ------6---------1-2-1-2---------|------------------------------------|

    | |        | |        |      |        |       |
G --------------------------------|------------------------------------|
D --------------------------------|------------------------------------|
A -6-----4-5-6-------4-5-6--4-5-6 |--4-5-6--4-5-6--4-5-6-----6-5-4-----|
E --------------------------------|------------------------------------|


Play around with the last 3 few bars through to the end of the song,
change the 4-5-6 to 4-5-sus6 for the last 16 bars.
     
Добавлено: 03.10.2013
Вам также может быть интересно:
Другие материалы по этой песне:
  • Аккорды и текст

Страница создана 03.10.2013
http://primanota.ru/galactic/funky-bird-chords.htm
Привет, Гость.
Предлагаем пройти революционный курс по гитаре.
Подарок от PrimaNota.Ru, забирай!