PrimaNota.ru - самый крупный в мире бесплатный архив песенных текстов, аккордов, табулатур и нот


Galactic Cowboys - Tilt-A-Whirl - текст песни, таба, видео

Регистрация Запомнить меня
Войти через:  Facebook Google Twitter Vk Yandex Mail.ru

Galactic Cowboys - Tilt-A-Whirl - текст песни, таба, видео

Печатать
Просмотров: 97
Авторы музыки: Alan Doss, Wally Farkas, Ben Huggins

		   Tilt-A-Whirl
By Farkas, Huggins, Doss (Galactic Cowboys)
Dropped D tuning
Transcribed by: Sangchul Lee

^ - hammer on or pull off
p - palm mute

Play1
D --0^3^5^0---------------------------------------------------------
A -----------3^0----------------------------------------------------
D ----------------5^3-----------------------------------------------

Play2
D ----------------5--3----------------------------------------------
A --0^3^5^0--3^0--5--3----------------------------------------------
D --0^3^5^0-------5--3----------------------------------------------
                  p  p

Play3
E ------------------------------------------------------------------
B ---------------------------------15~~-13~~-15-13-15-13-15~~-------
G --7~~-5~~-7-5--7-5--7~~-------------------------------------------
D ------------------------------------------------------------------
A ------------------------------------------------------------------
D ------------------------------------------------------------------

Play4
D --8---7-7--5-5----------------------------------------------------
A --6---5-5--3-3--6-6-----------------------------------------------
D ----------------6-6-----------------------------------------------

D --0-0-0-0-0--0^3--6-5--3--5----0-0-0-0-0--0^3--6-5--3-------------
A --0-0-0-0-0--0^3--6-5--3--5----0-0-0-0-0--0^3--6-5--3-------------
D --0-0-0-0-0--0^3--6-5--3--5----0-0-0-0-0--0^3--6-5--3-------------
    p p p p p                    p p p p p

Play5
E ------------------------------------------------------------------
B -------------------------------13-13--13-13-13--------------------
G --7~~-5~~-7-5--7-5--7~~--------12-12--12-12-12--------------------
D ------------------------------------------------------------------
A ------------------------------------------------------------------
D ------------------------------------------------------------------

E ------------------------------------------------------------------
B --15~~-13~~-15-13-15-13-15~~~-----13-13--13-13-13-----------------
G ----------------------------------12-12--12-12-12-----------------
D ------------------------------------------------------------------
A ------------------------------------------------------------------
D ------------------------------------------------------------------

Play6
E ------------------------------------------------------------------
B -----------------------------(5)----------------------------------
G -----------------------------(4)----------------------------------
D --3--5-5-3--5--x-x--3-5-5--2--2-----------------------------------
A --3--5-5-3--5--x-x--3-5-5--2--2-----------------------------------
D --3--5-5-3--5--x-x--3-5-5--2--2-----------------------------------

Play7
E ------------------------------------------------------------------
B --15~~-----13-----------------------------------------------------
G --------14----15-14--13^14--13-12-12^13--13-12^13-12--10-9--------
D ------------------------------------------------------------------
A ------------------------------------------------------------------
D ------------------------------------------------------------------

E ------------------------------------------------------------------
B ------------------------------------------------------------------
G --10--9^10^9-------10-10---------------------------12-13-14-15----
D -------------12-11-------12-10--10^12-----12-14-15----------------
A ------------------------------------------------------------------
D ------------------------------------------------------------------

E --17~~----15------------------------------------------------------
B -------17----18-17--16^17--16--15--15^16--------------------------
G ------------------------------------------------------------------
D ------------------------------------------------------------------
A ------------------------------------------------------------------
D ------------------------------------------------------------------

E ------------------------------------------------------------------
B --16--15^16--15---------------------------------------------------
G ---------------10-9--10--9^10^9----------10-10--------------------
D ---------------------------------12-11----------12-10--10^12--7---
A ------------------------------------------------------------------
D ------------------------------------------------------------------

Play8
D ----------------5--3----------------------------------------------
A --0-3-5-0--3^0--5--3----------------------------------------------
D --0-3-5-0-------5--3----------------------------------------------

Play9
D ----------------5-----6--5--3-0-----------------------------------
A --0^3^5^0--3^0--5-----6--5--3-0-----------------------------------
D --0^3^5^0-------5-----6--5--3-0-----------------------------------

Play1 - Play2

Play3
Round & round & round it goes where it stops nobody knows
Through the rain & through the snow they
Wind it up & watch it go

Play4
Tilt-A-Whirl Don't Know how it started
Tilt-A-Whirl But I can't get off
Tilt-A-Whirl I don't think I like it
Tilt-A-Whirl But I just can't stop

Play2 -

Play5
Round & round & round it goes where it stops nobody knows
Hickory dickory dickory dickory dock
It's all a game of beat the clock

Play4
Tilt-A-Whirl Don't Know how it started
Tilt-A-Whirl But I can't get off
Tilt-A-Whirl I don't think I like it
Tilt-A-Whirl But I just can't stop

Play6
There's much to be said for laboring in
Obscurity it's as underrated as the benefits
Of suffering (round & round)

Play7 -

Play3
Round & round & round it goes where it stops nobody knows

Play4
Tilt-A-Whirl Don't Know how it started
Tilt-A-Whirl But I can't get off
Tilt-A-Whirl I don't think I like it
Tilt-A-Whirl But I just can't stop

Play8 - Play2 - Play9

   * Go Back to Lyrics/Sound Page
     
Добавлено: 16.09.2013
Вам также может быть интересно:
Другие материалы по этой песне:
  • Аккорды и текст

Страница создана 29.07.2012
http://primanota.ru/galactic-cowboys/tilt-a-whirl-chords.htm
Привет, Гость.
Предлагаем пройти революционный курс по гитаре.
Подарок от PrimaNota.Ru, забирай!