PrimaNota.ru - самый крупный в мире бесплатный архив песенных текстов, аккордов, табулатур и нот


Galactic Cowboys - Ribbon - текст песни, таба, видео

Регистрация Запомнить меня
Войти через:  Facebook Google Twitter Vk Yandex Mail.ru

Galactic Cowboys - Ribbon - текст песни, таба, видео

Печатать
Просмотров: 91
Авторы музыки: Alan Doss, Monty Colvin, Wally Farkas, Ben Huggins

		   Ribbon
By Galactic Cowboys
Transcribed by: Andrew Saunders
Submitted by: John Street fraggle@bellsouth.net>

Ryth fig 1
e--------------------------------------------------|
B--------------------------------------------------|
G-----2----------------2-----------3------------2--|
D--0-----0----------0-----0-----3------------0-----|
A-----------3----------------1---------------------|
E----------------------------------------5---------|

Ryth fig 2
e-------------------------------------------|
B-------------------------------------------|
G--7--------5------------------3------------|
D--7--------5------------------3---------5--|
A--5--------3------------------1---------5--|
E----------------------------------------3--|

Play ryth fig 1 2 times (w/delay)
Play ryth fig 1 & 2 2 times (w/distortion)

Verse
Play ryth fig 1 4 times (w/delay)

Fill 1
e----------------------------|
B----------------------------|
G----------------------------|
D--8-8-8-8---8-8-8-8---5--5--|
A--8-8-8-8---8-8-8-8---5--5--|
E--8-8-8-8---8-8-8-8---5--5--|
Chorus
e-----------------------------------------------------------------|
B-----------------------------------------------------------------|
G-----------------------------------------------------------------|
D--0---------5------------8-------------------------5-------------|
A--0---------5------------8-------------------------5-------------|
E--0---------5------------8-------------------------5-------------|
       Pin a ribbon on my heart for the ones who've come before . . .

Fill 1 (after chorus 1st time only)
e--------------|
B-----------5--|
G-----------5--|
D--------5-----|
A-----3--------|
E--3-----------|
Fill 2
e-------------------------|
B-------------------------|
G-------------------------|
D--7--7b10-------r7-~~~~--|
A-------------------------|
E-------------------------|

Solo Riff (played over ryth fig 3)
e---/17------------17----b18r17--15\----------------------------------------|
B---------------------------------------------------------------------------|
G---------------------------------------8---------8\7---------7\6----6/8-\5-|

e---/17------------17----b18r17--15\----------------------------------------|
B---------------------------------------------------------------------------|
G---------------------------------------8---------8\7---------7\6----6/8-/11|

Ryth fig 3
e---------------------------------------------------------------------------|
B---------------------------------------------------------------------------|
G-------------------------------------------8-------10-------6-------8------|
D-3-3-3-3-3-3-3-3-1-1-1-1-1-1-1-1-1-1-1---6---6---8----8---4---4---6---6----|
A-3-3-3-3-3-3-3-3-1-1-1-1-1-1-1-1-1-1-1-------------------------------------|
E-3-3-3-3-3-3-3-3-1-1-1-1-1-1-1-1-1-1-1-6-------8--------4-------6----------|

Solo
e---------------------------------------------------------------------------|
B---------------------------------------------------------------------------|
G---------------------------------------------------------------------------|
D--/16-----16-16-14b16r14~~~~----12-14-14b15r14~~~~~-14-12-------------14~~~|
A-----------------------------14---------------------------13~~--12-10------|
E---------------------------------------------------------------------------|

e----------------------------------------------------15---17---15b17r-14-15-|
B-----------15-17-15-17b19-b19~~~~-17b19r-15-17-18--------------------------|
G----11-14------------------------------------------------------------------|
D--12-----------------------------------------------------------------------|
A---------------------------------------------------------------------------|
E---------------------------------------------------------------------------|

e-14------------------------------------------------------------------------|
B---------------------------13~~-----15~~--17-/19~~~------------------------|
G------------------------10-------10----------------------------------------|
D------------------10/12-----------------------------------------10---------|
A--------------------------------------------------------------8----10b12---|
E--------------------------------------------------------10/12--------------|

e----------------------|
B----------------------|
G----------------------|
D----------------------|
A-b12--b12r--9-10-9~~--|
E----------------------|
Fill 2 (play repeatedly with chorus after solo)
e----------------|
B----------------|
G--7--7----7--7--|
D--7--7----7--7--|
A--5--5----5--5--|
E----------------|

e-------------------------------------------|
B-------------------------------------------|
G-----2----------------2-----------3--------|
D--0-----0----------0-----0-----3--------5--|
A-----------3----------------1-----------5--|
E----------------------------------------5--|


     
Добавлено: 11.06.2013
Другие материалы по этой песне:
  • Аккорды и текст

Страница создана 27.03.2012
http://primanota.ru/galactic-cowboys/ribbon-chords.htm
Привет, Гость.
Предлагаем пройти революционный курс по гитаре.
Подарок от PrimaNota.Ru, забирай!