PrimaNota.ru - самый крупный в мире бесплатный архив песенных текстов, аккордов, табулатур и нот


Galactic Cowboys - In This Life - текст песни, таба, видео

Регистрация Запомнить меня
Войти через:  Facebook Google Twitter Vk Yandex Mail.ru

Galactic Cowboys - In This Life - текст песни, таба, видео

Печатать
Просмотров: 86
Уроки эстрадного вокала в Санкт-Петербурге
Авторы музыки: Monty Colvin, Ben Huggins

		   In This Life
By Galactic Cowboys
From Machine Fish
Transcribed by: Andrew Saunders http://www.cedarville.edu/student/s1133627>
Submitted by: john street fraggle@bellsouth.net>
Tuning DADGBE


Ryth fig 1                       4x
e---------------------------------|
B---------------------------------|
G---------------------------------|
D--2-2-2-2-------2--3--------2--3-|
A--2-2-2-2-3-2-0-2--3--0-3-2-2--3-|
E--2-2-2-2-----0-2--3--0-----2--3-|


Ryth fig 2                                                          2x
e--------------------------------------------------------------------|
B--------------------------------------------------------------------|
G--------------------------------------------------------------------|
D--2-------------2-3-------------3-2-------------2-3-------------3-2-|
A--2-------------2-3-------------3-2-------------2-3-------------3-2-|
E--2-------------2-3-------------3-2-------------2-3-------------3-2-|
   What a good boy I've been, a humanitarian,
   Does what's right in my own eyes, just a little compromise


Play ryth fig 1 2x
Play ryth fig 2 2x
Play ryth fig 1 2x


Ryth fig 3
e-----------------------------------------------------|
B-----------------------------------------------------|
G----------------------------------3------------------|
D--0---------------3---------------3---------------1--|
A--0---------------3---------------1---------------1--|
E--0---------------3-------------------------------1--|


Ryth fig 4
e------------------------------------------------------------------|
B------------------------------------------------------------------|
G------------------------------------------------------------------|
D--0-------0---0-0/2-------2---2-2/3-------3---3-3/5---5---5-5-5-5-|
A--0-------0---0-0/2-------2---2-2/3-------3---3-3/5---5---5-5-5-5-|
E--0-------0---0-0/2-------2---2-2/3-------3---3-3/5---5---5-5-5-5-|


Ryth fig 5
e------------------------------------------------------------------|
B--3---3-3-3---3-3/5---5-5-5---5-5/6---6-6-6---6-6/8---8-8-8---8-8-|
G--x---x-x-x---x-x-x---x-x-x---x-x-x---x-x-x---x-x-x---x-x-x---x-x-|
D--0---0-0-0---0-0/2---2-2-2---2-2/3---3-3-3---3-3/5---5-5-5---5-5-|
A------------------------------------------------------------------|
E------------------------------------------------------------------|


Ryth fig 6
e------------------------------------------------------------------|
B--3-3-3-3-3-3-3-3/5-5-5-5-5-5-5-5/6-6-6-6-6-6-6-6/8-8-8-8-8-8-8-8-|
G--x-x-x-x-x-x-x-x-x-x-x-x-x-x-x-x-x-x-x-x-x-x-x-x-x-x-x-x-x-x-x-x-|
D--0-0-0-0-0-0-0-0/2-2-2-2-2-2-2-2/3-3-3-3-3-3-3-3/5-5-5-5-5-5-5-5-|
A------------------------------------------------------------------|
E------------------------------------------------------------------|


Play ryth fig 5 over ryth fig 4 1st time, then ryth fig 6 the rest     
Добавлено: 08.08.2013
Другие материалы по этой песне:
  • Аккорды и текст

Страница создана 07.06.2012
http://primanota.ru/galactic-cowboys/in-this-life-chords.htm
Привет, Гость.
Предлагаем пройти революционный курс по гитаре.
Подарок от PrimaNota.Ru, забирай!