PrimaNota.ru - самый крупный в мире бесплатный архив песенных текстов, аккордов, табулатур и нот


Galactic Cowboys - I'm Not Amused - текст песни, таба, видео

Регистрация Запомнить меня
Войти через:  Facebook Google Twitter Vk Yandex Mail.ru

Galactic Cowboys - I'm Not Amused - текст песни, таба, видео

Печатать
Просмотров: 132
Уроки эстрадного вокала в Санкт-Петербурге
		   Transcribed by: Andrew Saunders
Submitted by: John Street(fraggle@bellsouth.net)
All guitars dropped D except for acoustic

Intro                    4x
e--0-----0000--0000--000-0-0--
B--0-----0000--0000--000-0-0--
G--1-----1111--1111--111-2-2--
D--2-----2222--2222--222-3-3--
A--2-----2222--2222--222-3-3--
E--0-----0000--0000--000-0-0--

Ryth fig 1
Guitar 1
e-----------------------------
B-----------------------------
G-----------------------------
D--2-----2-----2-----2---3-3--
A--2-----2-----2-----2---3-3--
E--2-2-2-2-2-2-2-2-2-2-2-3-3--
     ...   ..pm  ...   .

Ryth fig 2                    2nd time
Guitar 2
e----------------------------|-----
B----------------------------|-----
G----------------------------|-----
D--2-----2-----2-----2---3-3-|-0-0-
A----2-2---2-2---2-2---2-3-3-|-0-0-
E--........pm...........-3-3-|-0-0-

Verse
Guitar 1 play ryth fig 2

Ryth fig 3
e--7------------------7-----------------7------------------------7---------
B--8------------------8-----------------8------------------------8---------
G--7------------------7-----------------7------------------------7---------
D--9------------------9-----------------9------------------------9---------
A--7------------------7-----------------7------------------------7---------
E--------------------------------------------------------------------------
A cloak of mystery, a beating heart, he prays for sympathy, they do their part

Ryth fig 4
e----------------------------------------
B----------------------------------------
G--7---x---5------------4---x---3--------
D--7---x---5------------4---x---3--------
A--5---x---3------------2---x---1--------
E----------------------------------------
 Can't you see it's not amusing anymore (I'm not amused)
I'm not amused by all the blood upon your floor (I'm not amused)
It's going farther than it's ever been before (I'm not amused)
Can't you see it's not amusing anymore

Ryth fig 5
e--------------------------------------------------------------------------
B--------------------------------------------------------------------------
G-----------------------------------------------------------------4--------
D---7---7---10----7---7---5----7-7-7-7-10----7-7-7-7-5----2---2---4--------
A---7---7---10----7---7---5----7-7-7-7-10----7-7-7-7-5----2---2---2--------
E---7---7---10----7---7---5----7-7-7-7-10----7-7-7-7-5----2---2------------
    ..pm.         ..pm.        ..pm...       ...pm..      ..pm.

e-----------------------------------------
B-----------------------------------------
G-------------------------4---------------
D---2---2---3-----2-2-2-2-4----2-2-2-2-3--
A---2---2---3-----2-2-2-2-2----2-2-2-2-3--
E---2---2---3-----2-2-2-2------2-2-2-2-3--

Guitar 1 play ryth fig 5(clean)
Solo w\delay
e--------------------------------------------------------------------------
B-----------------------------------------------------10b12---------9-10-12
G--9-----9--9-9-9----------------------------------------------------------
D-----------------10------------13p12p10--13p12p10-------------------------
A--------------------------------------------------------------------------
E---------------------7h10r7-----------------------------------------------

e---------19b20-----------------/12--12----10/13---------------------------
B-10p9---------------------------------------------------/12----12-11-10---
G------------------------------------------------------------------------12
D--------------------------------------------------------------------------
A--------------------------------------------------------------------------
E--------------------------------------------------------------------------

e------------------------
B-10---------------------
G----9-------------------
D------------------------
A--------------------9---
E--------9-6-6/7-7-9-----

Ryth fig 6
e--------------------------
B--------------------------
G--------------------7--7--
D--3-----4-----5-----7--7--
A--1-1-1-2-2-2-3-3-3-5--5--
E--..p.m............-------

Solo w\distortion
e--------------------------------------------------------------------------
B---10-10b12--r-b12----r10--------------------------12-15-15b17--15b17r15--
G-9------------------------12-11--12-11-9h12p9~~~~-------------------------
D--------------------------------------------------------------------------
A--------------------------------------------------------------------------
E--------------------------------------------------------------------------
                   t                                                  t
e-----15b17---r--171210-151210-171210-151210-12p10-------------------12p7p5
B--15----------------------------------------------12p10b12r------12-------
G------------------------------------------------------------12~~----------
D--------------------------------------------------------------------------
A--------------------------------------------------------------------------
E--------------------------------------------------------------------------
   t      t      t      t      t      t      t      t      t      t      t
e-12p7p5-12p7p5-12p7p5-14p7p5-14p7p5-14p7p5-14p7p5-15p7p5-15p7p5-15p7p5-15p
B--------------------------------------------------------------------------
G--------------------------------------------------------------------------
D--------------------------------------------------------------------------
A--------------------------------------------------------------------------
E--------------------------------------------------------------------------
       t      t      t      t      t        t        t        t        t
e-7p5-17p7p5-17p7p5-17p7p5-17p7p5-19p15p12-19p15p12-19p15p12-19p15p12-19p15
B--------------------------------------------------------------------------
G--------------------------------------------------------------------------
D--------------------------------------------------------------------------
A--------------------------------------------------------------------------
E--------------------------------------------------------------------------
       t        t        t        t        t        t        t        t
e-p12-20p15p12-20p15p12-20p15p12-20p15p12-19p15p12-20p15p12-19p15p12-17p15p
B--------------------------------------------------------------------------
G--------------------------------------------------------------------------
D--------------------------------------------------------------------------
A--------------------------------------------------------------------------
E--------------------------------------------------------------------------
      t        t        t  t     t        t     t     t     t
e-12-19p15p12-17p15p12-15-15p12-17p15p12-15p12-15p12-12p7-12p7------------
B----------------------------------------------------------------12---\----
G--------------------------------------------------------------------------
D--------------------------------------------------------------------------
A--------------------------------------------------------------------------
E--------------------------------------------------------------------------

Ryth fig 7
e----------------------------------------------------------------
B----------------------------------------------------------------
G----------------------------------------------------------------
D-2---2---2---2------------------2---2---2---2-------------------
A-2---2---2---2--3-2-1---2-1-----2---2---2---2--3-2-1---2-1------
E-2---2---2---2--------5-----5-4-2---2---2---2--------5-----5-4--

Ryth fig 8
e----------------------------------------------------------------
B----------------------------------------------------------------
G----------------------------------------------------------------
D-2------------------------------2-------------------------------
A-2--------------3-2-1---2-1-----2--------------3-2-1---2-1------
E-2--------------------5-----5-4-2--------------------5-----5-4--

Ryth fig 9(Outro)
e------------------------------------------------------------------------
B------------------------------------------------------------------------
G------------------------------------------------------------------------
D-2-2-2-2-2-2-2------------------2-2-2-2-2-2-2-------------------------2-
A-2-2-2-2-2-2-2--3-2-1---2-1-----2-2-2-2-2-2-2--3-2-1---2-1------------2-
E-2-2-2-2-2-2-2--------5-----5-4-2-2-2-2-2-2-2--------5-----5-4--------2-

   * Go back to the update page.
   * Back to the debut info page.
   * To get more guitar tabs.
Someone for Everyone
By: Galactic Cowboys
From: Galactic Cowboys
Transcribed by: Andrew Saunders
Submitted by: John Street(fraggle@bellsouth.net)

Intro
Ryth fig 1
e-----------0---------------0-----------------0---------------0------------
B--------------0----------------0----------------0----------------0--------
G---------0------0--------0---0-------------0------0------------0----------
D------4----------------4---------4-------4---------------4---------4------
A----2----------------2-----------------2---------------2------------------
E--2----------------2----------------2----------------2--------------------

Ryth fig 2
e--------------------------------------------------------------------------
B--------------------------------------------------------------------------
G-------------------4-4-4-4-4-4-4---------------------4-4-4-4-4-4-4--------
D--4----------------4-4-4-4-4-4-4----4----------------4-4-4-4-4-4-4----4---
A--4----------------2-2-2-2-2-2-2----4----------------2-2-2-2-2-2-2----4---
E--2---------------------------------2---------------------------------2---

Verse
Ryth fig 3                                                         play 7x
e---------------------------------------------------------------|--------
B----------------------------------------------15---------------|--------
G----------------------------------------------14b16----12~~~~4-|--4-4-4-
D--2---------------------------------1------------------------4-|--4-4-4-
A--2---------------------------------2------------------------2-|--2-2-2-
E--0------------------------------------------------------------||..pm..|
       When the final sun had set in the sky, Didn't want to be alone
       Remebering the days when horses couldn't fly, when Earth was my home

Prechorus
e--0-----------------------------------------------------------------------
B--1-----------------------------------------------------------------------
G--0--------------------4----4----4----4-4-4--4-4--5-5-5---5-5-5--x-x-x-4--
D--2--------------------1----1----1----4-4-4--4-4--5-5-5---5-5-5--x-x-x-4--
A--3--------------------2----2----2----2-2-2--2-2--3-3-3---3-3-3--x-x-x-2--
E--------------------------------------------------------------------------
   Sailed the galaxy to find where you are,       my father used to say

e--------------------------0-----------------------------------------------
B--------------------------1-----------------------------------------------
G-4--4-4--x-x--4--4-4-4----0-----------------------------------------------
D-4--4-4--x-x--1--1-1-1----2-----------------------------------------------
A-2--2-2--x-x--2--2-2-2----3-----------------------------------------------
E--------------------------------------------------------------------------
                            Yeah            (Yeeeeeaaaaaahhhhhhh)
Chorus
G--------------------7----5-------------------------7----5-----------------
D--------5---2-------7----5-------------5---2-------7----5-----------------
A--------5---2-------5----3-------------5---2-------5----3-----------------
E--------3---0--------------------------3---0------------------------------
There is someone for everyone, there is someone for everyone

G--------------------7----5-------------------------7----5-----------------
D--------5---2-------7----5-------------5---2-------7----5-----------------
A--------5---2-------5----3-------------5---2-------5----3-----------------
E--------3---0--------------------------3---0------------------------------
Well, my father said don't worry son, there is someone for everyone

Verse 2
Floating weightless in an infinite space, don't want to be alone
Exploration for a heavenly face, a love of my own, don't let me be alone

Prechorus
Always searching for that one perfect star, filled with sorrow on the way
By the journeys end you'll know who you are, my father used to say

Chorus

Bridge
D--7/9-9-9-9\7-7-7-7-6-5---7\5-5-5-5\4-4-4\3-2---------------------------
A--5/7-7-7-7\5-5-5-5-4-3---5\3-3-3-3\2-2-2\1-2---------------------------
E-----.pm..---.pm..-----------.pm..----------0---------------------------
   Don't abandon me, don't abandon me

Chorus
G--------------------9----7-------------------------9----7-----------------
D--------7---4-------9----7-------------7---4-------9----7-----------------
A--------7---4-------7----5-------------7---4-------7----5-----------------
E--------5---2--------------------------5---2------------------------------
There is someone for everyone, there is someone for everyone

G--------------------9----7-------------------------9----7-----------------
D--------7---4-------9----7-------------7---4-------9----7-----------------
A--------7---4-------7----5-------------7---4-------7----5-----------------
E--------5---2--------------------------5---2------------------------------
Well, my father said don't worry son, there is someone for everyone

Repeat chorus with heavy palm muting and strumming

Bridge

e-----------0---------------0-----------------0---------------0------------
B--------------0----------------0----------------0----------------0--------
G---------0------0--------0---0-------------0------0------------0----------
D------4----------------4---------4-------4---------------4---------4------
A----2----------------2-----------------2---------------2------------------
E--2----------------2----------------2----------------2--------------------
|                                                                         |
e--------------------------------------------------------------------------
B--------------------------------------------------------------------------
G-------------------4-4-4-4-4-4-4---------------------4-4-4-4-3------------
D--4----------------4-4-4-4-4-4-4----4----------------4-4-4-4-3-4-3--------
A--4----------------2-2-2-2-2-2-2----4----------------2-2-2-2-1-4-3--------
E--2---------------------------------2--------------------------2-1--------
                                                             slow
e---------4--
B-------5-5--
G-----6-6----
D---6--------
A-4----------
E------------

   * Go back to the update page.
   * Back to the debut info page.
   * To get more guitar tabs.
     
Добавлено: 21.09.2013
Другие материалы по этой песне:
  • Аккорды и текст

Страница создана 02.03.2012
http://primanota.ru/galactic-cowboys/im-not-amused-chords.htm
Привет, Гость.
Предлагаем пройти революционный курс по гитаре.
Подарок от PrimaNota.Ru, забирай!