PrimaNota.ru - самый крупный в мире бесплатный архив песенных текстов, аккордов, табулатур и нот


Galactic Cowboys - I Cant Wait - таба, видео

Регистрация Запомнить меня
Войти через:  Facebook Google Twitter Vk Yandex Mail.ru

Galactic Cowboys - I Cant Wait - таба, видео

Печатать
Просмотров: 61
Авторы музыки: Alan Doss, Monty Colvin, Wally Farkas, Ben Huggins

		   I Can't Wait
By Galactic Cowboys
Transcribed by: Andrew Saunders
Submitted by: John Street fraggle@bellsouth.net>
Tuning DADGBE

Intro (bass arr. for guitar)
E--5-5-5-5/8-8-8-8\5-5-5-5/10-10-10-10\-|

Guitar
D--5-5-5-5/8-8-8-8\4-4-4-4-4-4-4-4-|
A--5-5-5-5/8-8-8-8\4-4-4-4-4-4-4-4-|
E--5-5-5-5/8-8-8-8\4-4-4-4-4-4-4-4-|

Ryth fig 1
D--5-5-5-5/8-8-8-8\5-5-5-5/10-10-10-10\5-5-5-5/8-8-8-8\4-4-4-4-4-4-4-4-|
A--5-5-5-5/8-8-8-8\5-5-5-5/10-10-10-10\5-5-5-5/8-8-8-8\4-4-4-4-4-4-4-4-|
E--5-5-5-5/8-8-8-8\5-5-5-5/10-10-10-10\5-5-5-5/8-8-8-8\4-4-4-4-4-4-4-4-|

Ryth fig 2 (palm mute entire time except for chords were there are *)
D--5-5-5-5/8-8-8-8\5-5-5-5/10-10-10-10\5-5-5-5/8-8-8-8\4-4-4-4-4-4-4-4-----|
A--5-5-5-5/8-8-8-8\5-5-5-5/10-10-10-10\5-5-5-5/8-8-8-8\4-4-4-4-4-4-4-4-----|
E--5-5-5-5/8-8-8-8\5-5-5-5/10-10-10-10\5-5-5-5/8-8-8-8\4-4-4-4-4-4-4-4-----|
       *       *       *          *        *       *        play fill 1
Fill 1
e--------|
B--------|
G--6~~~~-|
D--------|
A--------|
E--------|

Chorus
e----------------------------------------------------------------|
B----------------------------------------------------------------|
G--7-7-7----------5-5-5------------------------------------------|
D--7-7-7-5--5-5-5-5-5-5-3--3-3-3-1--1-1-1-1-1-1-1-1-1-1-1-1-1-1--|
A--5-5-5-5--5-5-5-3-3-3-3--3-3-3-1--1-1-1-1-1-1-1-1-1-1-1-1-1-1--|
E--------5--5-5-5-------3--3-3-3-1--1-1-1-1-1-1-1-1-1-1-1-1-1-1--
 I care more cause I know what's in store
e----------------------------------------------------------------|
B----------------------------------------------------------------|
G--------5--5-5-5-------5--5-5-5---------------------------------|
D--3-3-3-5--5-5-5-3-3-3-5--5-5-5-1--1-1-1-1-1-1-1-1-1-1-1-1-1-1--|
A--3-3-3-3--3-3-3-3-3-3-3--5-5-5-1--1-1-1-1-1-1-1-1-1-1-1-1-1-1--|
E--3-3-3----------3-3-3----------1--1-1-1-1-1-1-1-1-1-1-1-1-1-1--|
 I care more because I know the score
                                                                     2x
D--5-5-5-5/8-8-8-8\5-5-5-5/10-10-10-10\5-5-5-5/8-8-8-8\4-4-4-4-4-4-4-4-|
A--5-5-5-5/8-8-8-8\5-5-5-5/10-10-10-10\5-5-5-5/8-8-8-8\4-4-4-4-4-4-4-4-|
E--5-5-5-5/8-8-8-8\5-5-5-5/10-10-10-10\5-5-5-5/8-8-8-8\4-4-4-4-4-4-4-4-|
I can't wait, I can't wait, I can't wait

Ryth fig 3
e---------------------------------------------------------------------|
B-----------5-5-5-----------5-5-5-----------5-5-5---------------------|
G-----------4-4-4-----------4-4-4-----------4-4-4--6--6-6-6-6-6-6-6-6-|
D--0--3-2-0--------0--3-2-0--------0--3-2-0--------6--6-6-6-6-6-6-6-6-|
A--0--3-2-0--------0--3-2-0--------0--3-2-0--------4--4-4-4-4-4-4-4-4-|
E--0--3-2-0--------0--3-2-0--------0--3-2-0--------6--6-6-6-6-6-6-6-6-|

Solo
e--------15----15-15-15---15-----15---15---15---15-15--15-1815-----1815-----|
B--18b20---b20---b20---b20---b20----b20-b20---b20--b20--------1815-----1815-|
G---------------------------------------------------------------------------|
D---------------------------------------------------------------------------|
A---------------------------------------------------------------------------|
E---------------------------------------------------------------------------|

e-1815----1815----1815-----2018----1815----2018-----2220----2018----1815----|
B-----1815----1815----1815-----1815----1815----1815-----2018----2018----1815|
G---------------------------------------------------------------------------|
D---------------------------------------------------------------------------|
A---------------------------------------------------------------------------|
E---------------------------------------------------------------------------|
                                                                    pic slide
e-1815----1815----2018----2220----2420----2220----2018----2420----2220/\/\/\|
B-----1815----1815----1815----2018----2018----2018----2018----2018----/\/\/\|
G---------------------------------------------------------------------------|
D---------------------------------------------------------------------------|
A---------------------------------------------------------------------------|
E---------------------------------------------------------------------------|

Chorus 2x
Ryth fig 1 4x
Ryth fig 3 2x

e----------------------|
B--------------1----2--|
G--------0--1----------|
D-----3----------------|
A--4-------------------|
E----------------------|
  NOTE-The solo goes very fast.  I tabbed out the notes he plays, but the
  timing is not accurate.  Just play as fast as you can.


     
Добавлено: 01.12.2013
Другие материалы по этой песне:
  • Аккорды и текст

Страница создана 01.12.2013
http://primanota.ru/galactic-cowboys/i-cant-wait-chords.htm
Привет, Гость.
Предлагаем пройти революционный курс по гитаре.
Подарок от PrimaNota.Ru, забирай!