PrimaNota.ru - самый крупный в мире бесплатный архив песенных текстов, аккордов, табулатур и нот


Gabry Ponte - Time To Rock - таба, видео

Регистрация Запомнить меня
Войти через:  Facebook Google Twitter Vk Yandex Mail.ru

Gabry Ponte - Time To Rock - таба, видео

Печатать
Просмотров: 187
Уроки эстрадного вокала в Санкт-Петербурге
-------------------------------------------------------------------------------
                             TIME TO ROCK - Gabry Ponte
-------------------------------------------------------------------------------
Tabbed by: FabioLight
E-mail: faby96tv@hotmail.it

Tuning: Standard

This is the melody that stars at 01:11 in the song.

e|---------------------------------------------------------------------------|
B|---------------------------------------------------------------------------|
G|---14---15---14---12---14--------14---15---14---12---14---12---------------|
D|----------------------------12---------------------------------------------|
A|---------------------------------------------------------------------------|
E|---------------------------------------------------------------------------|

e|---------------------------------------------------------------------------|
B|---------------------------------------------------------------------------|
G|---12---14---12---10---12--12---12---14---12---10---9----------------------|
D|--------------------------------------------------------12-----------------|
A|---------------------------------------------------------------------------|
E|---------------------------------------------------------------------------|

e|---------------------------------------------------------------------------|
B|------------------------------------------------15-------------------------|
G|---14---15---14---12---14---14---14---15---14--------14---12---------------|
D|---------------------------------------------------------------------------|
A|---------------------------------------------------------------------------|
E|---------------------------------------------------------------------------|

e|---------------------------------------------------------------------------|
B|---------------------------------------------------------------------------|
G|---12---14---12---10---12--12---12---14---12---10---9----------------------|
D|--------------------------------------------------------12-----------------|
A|---------------------------------------------------------------------------|
E|---------------------------------------------------------------------------|  Repeat

For melody that stars at 01:38

e|------------------------|
B|------------------------|
G|---14---15--------------|
D|-------------15---12----|
A|------------------------| Then, repeat the same tabs wrote up there!
E|------------------------|


************************************

Tabbed by FabioLight~ 2015

************************************
Добавлено: 13.08.2015
Вам также может быть интересно:
Другие материалы по этой песне:
  • Аккорды и текст

Страница создана 13.08.2015
http://primanota.ru/gabry-ponte/time-to-rock-chords.htm
Привет, Гость.
Предлагаем пройти революционный курс по гитаре.
Подарок от PrimaNota.Ru, забирай!