PrimaNota.ru - самый крупный в мире бесплатный архив песенных текстов, аккордов, табулатур и нот


Gabry Ponte - La Danza Delle Streghe - текст песни, таба, видео

Регистрация Запомнить меня
Войти через:  Facebook Google Twitter Vk Yandex Mail.ru

Gabry Ponte - La Danza Delle Streghe - текст песни, таба, видео

Печатать
Просмотров: 157
Уроки эстрадного вокала в Санкт-Петербурге
-------------------------------------------------------------------------------
                             LA DANZA DELLE STREGHE - Gabry Ponte
-------------------------------------------------------------------------------
Tabbed by: FabioLight
E-mail: faby96tv@hotmail.it
Arranged by: Fabio Testaì

Tuning: Standard

The entire song is based on this melody (play it for the whole song):

e|-----------------------------------------------------------|
B|--------9--11--12--12--12/14--12--11--11--12--11--9--9-----|
G|--8--8--------------------------------------------------8--|
D|-----------------------------------------------------------|
A|-----------------------------------------------------------|
E|-----------------------------------------------------------|

e|-----------------------------------------------|
B|--------9--11--12--12--9--7--9--7--9--7--7-----|
G|--8--8--------------------------------------8--|
D|-----------------------------------------------|
A|-----------------------------------------------|
E|-----------------------------------------------|

e|-------------------------------------------------------|
B|-------------------------------------------------------|
G|--8--9--8--6--6--5--3--5--13--14--13--11--11--9--8--9--|
D|-------------------------------------------------------|
A|-------------------------------------------------------|
E|-------------------------------------------------------|

e|---------------------------------------------------|
B|---------9--11--14--12--11--12--11--11--12--11--9--|
G|--9--11--------------------------------------------|
D|---------------------------------------------------|
A|---------------------------------------------------|
E|---------------------------------------------------|

************************************

| /   slide up
FabioLight~ 2015
************************************
Добавлено: 25.10.2015
Другие материалы по этой песне:
  • Аккорды и текст

Страница создана 17.03.2012
http://primanota.ru/gabry-ponte/la-danza-delle-streghe-chords.htm
Привет, Гость.
Предлагаем пройти революционный курс по гитаре.
Подарок от PrimaNota.Ru, забирай!