PrimaNota.ru - самый крупный в мире бесплатный архив песенных текстов, аккордов, табулатур и нот


Gabry Ponte - Geordie - таба, видео

Регистрация Запомнить меня
Войти через:  Facebook Google Twitter Vk Yandex Mail.ru

Gabry Ponte - Geordie - таба, видео

Печатать
Просмотров: 107
-------------------------------------------------------------------------------
                             GEORDIE - Gabry Ponte
-------------------------------------------------------------------------------
Tabbed by: FabioLight
E-mail: faby96tv@hotmail.it
Arranged by: Fabio Testaì

Tuning: Standard
Song: http://youtu.be/uD423NlQGYQ

The song starts with these notes:

e|-----------------------------------------------------|
B|-----------------------------------------------------|
G|-----------------------------------------------------|
D|-----------------------------------------------------|
A|--5--5--0--0--1--1--3--3----5--5--8--8--3--3--3--3---|
E|-----------------------------------------------------| 

Play them until the melody that starts at 01:25

e|---------------------------------------------------------------|
B|--------------------------------------------10--10-------------|
G|--10--10--9--9--7--9--7--5------10--10--12----------9--10--12--|
D|----------------------------7----------------------------------|
A|---------------------------------------------------------------|
E|---------------------------------------------------------------|

e|----------------------------------------------------------|
B|--------------10--10--------------------------------------|
G|--10--10--12----------12--9--7----------7--------------7--|
D|--------------------------------10--10-----7--7--5--7-----|
A|----------------------------------------------------------|
E|----------------------------------------------------------| Repeat that for the whole song.


****************

FabioLight~ 2015

****************

Добавлено: 25.10.2015
Другие материалы по этой песне:
  • Аккорды и текст

Страница создана 25.10.2015
http://primanota.ru/gabry-ponte/geordie-chords.htm
Привет, Гость.
Предлагаем пройти революционный курс по гитаре.
Подарок от PrimaNota.Ru, забирай!