PrimaNota.ru - самый крупный в мире бесплатный архив песенных текстов, аккордов, табулатур и нот


Gabrielle Aplin - Moments - таба, видео

Регистрация Запомнить меня
Войти через:  Facebook Google Twitter Vk Yandex Mail.ru

Gabrielle Aplin - Moments - таба, видео

Печатать
Просмотров: 204
Moments - Gabrielle Aplin

[intro]

e|-------------|
B|------1----1-|
G|--------0----|  x8
D|----2--------|
A|-3-----------|
E|-------------|

[verse pattern]

  C          x4  F/C       x2  C          x2
e|-------------||------------||-------------||
B|------1----1-||------1---1-||------1---1--||
G|--------0----||--------2---||--------0----||     x2
D|----2--------||----3-------||---2---------||
A|-3-----------||-3----------||-3-----------||
E|-------------||------------||-------------||

C                                  C
We can climb the highest mountains reaching out to catch our dreams,
F/C                                C
together there is nothing we can't be
C                            C
Dive into the deepest ocean, dance upon the rolling seas
F/C                      C
make a moment, keep a memory


[pre chorus]

  Am         x4  C          x2  (x1 the 2nd time)
e|-------------||-------------||
B|------1----1-||------1---1--||
G|--------2----||--------0----||     x2
D|----2--------||---2---------||
A|-0-----------||-3-----------||
E|-------------||-------------||

Am                                             C
Don't need to think about it, step into the great unknown
Am                                                    C
Sing and shout and laugh about it, we know we're not alone


[Chorus]

  C      C/E     F        x2  Am       x2  F           G        C
e|-------------||-----------||-----------||-----------|---------|---------|
B|-----1-----1-||-----1---1-||-----1---1-||-----1---1-|----3--0-|----1--1-|
G|---------0---||-------2---||-------2---||-------2---|------0--|------0--|  x2
D|---2---------||---3-------||---2-------||---3-------|--0------|---2-----|
A|-3-----------||-----------||-0---------||-----------|---------|-3-------|
E|-------0-----||-1---------||-----------||-1---------|-3-------|---------|

     C - C/E   F              Am        F       -      G            C
You lift  me   up and we are free, I'll follow you wherever you may be 
     C - C/E   F              Am        F              G            C
You lift me up and we are free, I'll follow you wherever you may be 


[verse 2]

C                                 C
Staying up to watch the sunrise, sneaking out and climbing trees,
F/C                                C
together there is nothing we can't be
C                                       C
Close your eyes and see how time flies, throw your worries to the breeze,
F/C                           C
we can do whatever we believe

[pre chorus and chorus]
Добавлено: 10.11.2015
Другие материалы по этой песне:
  • Аккорды и текст

Страница создана 10.11.2015
http://primanota.ru/gabrielle-aplin/moments-chords.htm
Привет, Гость.
Предлагаем пройти революционный курс по гитаре.
Подарок от PrimaNota.Ru, забирай!