PrimaNota.ru - самый крупный в мире бесплатный архив песенных текстов, аккордов, табулатур и нот


Gabriel Faure - Pavane - таба, видео

Регистрация Запомнить меня
Войти через:  Facebook Google Twitter Vk Yandex Mail.ru

Gabriel Faure - Pavane - таба, видео

Печатать
Просмотров: 303
Уроки эстрадного вокала в Санкт-Петербурге
Pavane - Gabriel Faure (1845-1924)

TablEdited by Thomas J Kelly

Tuning : E A D G B E    Time Signature: 4/4

  |       |       |       |          |       |       |       |         
|----------------------------------|-12--------------12---------------|
|---------0---------------0--------|---------0---------------0--------|
|-----0-------0-------0-------0----|-----0-------0-------0-------0----|
|----------------------------------|----------------------------------|
|----------------------------------|----------------------------------|
|-0---------------0----------------|-0---------------0----------------|

  |       |       |       |          |       |       |       |         
|-0-------------2-3-------------5--|-3---2---3---0---2-------------3--|
|---------0---------------0--------|-3---------------3-------3--------|
|-----0-------0-------0-------0----|-2---------------2---2-------2----|
|-2--------------------------------|-0---------------2----------------|
|-----------------3----------------|----------------------------------|
|----------------------------------|----------------------------------|

  |       |       |       |          |       |       |       |         
|-2---0---2-------0----------------|----------------------------------|
|-3-----------3---1----------------|-0--------------------------------|
|-0---------------0-------0-----4--|---------2---------------2--------|
|---------------------2-------2----|-----1-------1-------1-------1----|
|-3---------------0----------------|-2---------------0----------------|
|----------------------------------|----------------------------------|

  |       |       |       |          |       |       |       |         
|-------------------------------0--|----------------------------------|
|-0-------------1-3----------------|-3---1---3---0---1-------------3--|
|---------0-----------0-------0----|-0-------------------2-------2----|
|-----2-------2-----------2--------|-----------------0-------3--------|
|----------------------------------|-0--------------------------------|
|-3---------------0----------------|----------------------------------|

  |       |       |       |          |       |       |       |         
|----------------------------------|----------------------------------|
|-1---0---1------------------------|-0-------0---1-------0------------|
|-0-----------2---4-----------3----|-----------------2-------0--------|
|----------------------------------|-----4-----------------------4----|
|-------------------------4--------|----------------------------------|
|-3-------------------2------------|----------------------------------|

  |       |       |       |          |       |       |       |         
|-0-------------2-3-------------5--|-3---2---3---0---2-------------3--|
|---------0---------------0--------|-3---------------3-------3--------|
|-----0-------0-------0-------0----|-2---------------2---2-------2----|
|-2--------------------------------|-0--------------------------------|
|-----------------3----------------|-----------------2----------------|
|----------------------------------|----------------------------------|

  |       |       |       |          |       |       |       |         
|-2---0---2-------0----------------|----------------------------------|
|-3-----------3---1-------------4--|-0--------------------------------|
|-0---------------0-------0--------|---------2---------------2--------|
|---------------------2-------2----|-----1-------1-------1-------1----|
|-3---------------0----------------|-2---------------0----------------|
|----------------------------------|----------------------------------|

  |       |       |       |          |       |       |       |         
|-3-------------5-7-------------8--|-7---5---7---3---5-------------7--|
|---------0---------------0--------|-8---7---8---5---6-----------6----|
|-----0-------0-------0-------0----|-------------------------7--------|
|-2---------------5----------------|---------------------7------------|
|----------------------------------|-----------------5----------------|
|----------------------------------|-0--------------------------------|

  |       |       |       |          |       |       |       |         
|-3---2---3---0--------------------||0--------------------------------|
|-5---4---5-------5-------4--------|*---------------------------------|
|-0-----------3---------------2----||------------0--------------------|
|---------------------4------------||--------2-------4---2---0--------|
|-----------------2----------------|*----2-----------------------3----|
|----------------------------------||0--------------------------------|

  |       |       |       |          |       |       |       |         
|-------------------------------0--|-2---0---3---2--------------------|
|-0-------------2-4-------2-4------|-0---------------4-----------2----|
|---------2------------------------|-0-----------------------3--------|
|-----1-------1-------4------------|---------------------2------------|
|-2---------------0----------------|----------------------------------|
|----------------------------------|-3--------------------------------|

  |       |       |       |          |       |       |       |         
|-------------------------------0--|-2---0---3---2--------------------|
|-0-------------2-3-------2--------|-0---------------3----------------|
|---------2------------------------|-0---------------------------2----|
|-----1-------1-------0------------|-------------------------2--------|
|-2--------------------------------|---------------------0------------|
|-----------------2----------------|-3--------------------------------|

  |       |       |       |          |       |       |       |         
|----------------------------------|----------------------------------|
|-0---------------3-----------2----|-0-----------0-2-3-----------2----|
|---------3---------------0--------|---------3---------------0--------|
|-----0---------------2------------|-----0---------------2------------|
|-----------------0----------------|-----------------0----------------|
|-2--------------------------------|-2--------------------------------|

  |       |       |       |          |       |       |       |         
|-2-----------------------0-----0--|----------------------------------|
|---------3------------------------|-4--------------------------------|
|-----2-------2-------2------------|---------------------2---4---0----|
|-0--------------------------------|-----4---5---2---4----------------|
|-----------------3----------------|-2--------------------------------|
|----------------------------------|----------------------------------|

  |       |       |       |          |       |       |       |         
|----------------------------------|-0-------------2-3-------------5--|
|-----1---3---0---1-------0--------|---------0---------------0--------|
|-2-------------------2-------0----|-----0-------0-------0-------0----|
|----------------------------------|-2--------------------------------|
|----------------------------------|-----------------3----------------|
|----------------------------------|----------------------------------|

  |       |       |       |          |       |       |       |         
|-3---2---3---0---2-------------3--|-2---0---2-------0----------------|
|-3---------------3-------3--------|-3-----------3---1-------------4--|
|-2---------------2---2-------2----|-0---------------0-------0--------|
|-0--------------------------------|---------------------2-------2----|
|-----------------2----------------|-3---------------0----------------|
|----------------------------------|----------------------------------|

  |       |       |       |          |       |       |       |         
|----------------------------------|-3-------------5-7-------------8--|
|-0--------------------------------|---------0---------------0--------|
|---------2---------------2--------|-----0-------0-------0-------0----|
|-----1-------1-------1-------1----|-2---------------5----------------|
|-2---------------0----------------|----------------------------------|
|----------------------------------|----------------------------------|

  |       |       |       |          |       |       |       |         
|-7---5---7---3---5-------------7--|-3---2---3---0-------------------||
|-8---7---8---5---6-----------6----|-5---4---5-------5-------4-------*|
|-------------------------7--------|-0-----------3---------------2---||
|---------------------7------------|---------------------4-----------||
|-----------------5----------------|-----------------2---------------*|
|----------------------------------|---------------------------------||

  |       |       |       |          |       |       |       |         
|-0--------------------------------|-3---2---3---0--------------------|
|-2---4---4---2---1---2---2---1----|-5---4---5-------5----------------|
|-0--------------------------------|-------------3-----------4--------|
|----------------------------------|---------------------4-------2----|
|-0--------------------------------|-----------------2----------------|
|----------------------------------|-0--------------------------------|

  |       |       |       |          |       |       |       |         
|-0--------------------------------|----------------------------------|
|-2---4---4---2---1---2---2---1----|----------------------------------|
|-0--------------------------------|----------------------------------|
|----------------------------------|-5---4---5---2---2-------1--------|
|-0--------------------------------|-------------------------2--------|
|----------------------------------|-0---------------2----------------|

  |       |       |       |          |       |       |       |         
|---------0---------------0--------|---------3------------------------|
|----------------------------------|-----0-------0-------0------------|
|----------------------------------|-------------------------------2--|
|-2---2-------2---------------2----|-2-------------4-5-------4--------|
|----------------------------------|----------------------------------|
|-0--------------------------------|----------------------------------|

  |       |       |       |          |       |       |       |         
|-------------------------3--------|-------------------------5--------|
|---------------------0------------|-----0----------------------------|
|-4---2---5---4--------------------|---------------------5------------|
|-----------------5-----------4----|-2-------1-----4-5-----------4----|
|----------------------------------|----------------------------------|
|----------------------------------|----------------------------------|

  |       |       |       |          |       |       |       |         
|-------------------------5--------|----------------------------------|
|-----0----------------------------|-------------------5-----4-5-7-8--|
|---------------------5------------|-------------0--------------------|
|-2-------1-----4-5-----------4----|-4-----1--------------------------|
|----------------------------------|----------------------------------|
|----------------------------------|-0--------------------------------|

  |       |       |       |          |       |       |       |         
|-7--------------------------------|-0-------------2-0-------------2--|
|----------------------------------|---------0---------------2--------|
|-----------------2----------------|-----0-------0-------3-------3----|
|-----------------1----------------|----------------------------------|
|---------2------------------------|----------------------------------|
|-----------------3-------2--------|-0---------------2----------------|

  |       |       |       |          |       |       |       |         
|-0-------------2-0-------------2--|-0-------------0-2---0-------2-0--|
|---------0---------------2--------|---------0------------------------|
|-----0-------0-------0-------0----|-----0-------------------3--------|
|----------------------------------|----------------------------------|
|-2---------------0----------------|----------------------------------|
|----------------------------------|-0---------------2----------------|

  |       |       |       |          |       |       |       |         
|-2---0-----------2-----5-----9-11-|-12-------------------------------|
|---------0------------------------|---------0------------------------|
|----------------------------------|-----0-------0---------3----------|
|----------------------------------|-------------------2-------2------|
|-2---------------0----------------|----------------------------------|
|----------------------------------|-0---------------2----------------|

  |       |       |       |          |       |       |       |         
|----------------------------------|----------------------------------|
|-3---------------2----------------|-3-----------3---1---0------------|
|---------0---------------0--------|-0-----------------------2---0----|
|-----2-------2-------2-------2----|---------0------------------------|
|-2---------------0----------------|-2--------------------------------|
|----------------------------------|----------------------------------|

  |       |       |       |          |       |       |       |         
|----------------------------------|----------------------------------|
|----------------------------------|-----------------5----------------|
|----------------------------------|-----------------2----------------|
|-4---2---0------------------------|-----------------2----------------|
|-------------3---2---0------------|-----------------2----------------|
|-------------------------3---2----|-0--------------------------------|

  |       |       |       |          |       |       |       |         
|-0--------------------------------|---------------------------------||
|-0--------------------------------|---------------------------------||
|-0--------------------------------|---------------------------------||
|-2--------------------------------|---------------------------------||
|-2--------------------------------|---------------------------------||
|-0--------------------------------|---------------------------------||

http://en.wikipedia.org/wiki/Gabriel_Faur%C3%A9
Добавлено: 08.06.2012
Другие материалы по этой песне:

Страница создана 08.06.2012
http://primanota.ru/gabriel-faure/pavane-chords.htm
Привет, Гость.
Предлагаем пройти революционный курс по гитаре.
Подарок от PrimaNota.Ru, забирай!