PrimaNota.ru - самый крупный в мире бесплатный архив песенных текстов, аккордов, табулатур и нот


Gabe Bondoc - Temporary - таба, видео

Регистрация Запомнить меня
Войти через:  Facebook Google Twitter Vk Yandex Mail.ru

Gabe Bondoc - Temporary - таба, видео

Печатать
Просмотров: 129
Temporary
by Gabe Bondoc
tabbed by Jordan Sanvicente

1/2 Step Down

this is the entire tab without the lyrics basically. play along with the song for 
pattern

Intro:
|-----------3--------|
|--3--3--3--3--3--3--|
|--0--0--0--0--0--0--|
|--2--4--4--2--4--4--|
|--3--5--2--3--5--2--|
|--------------------|

Verse:
|-----------3--------------------------|
|--3--3--3--3--3--3--3--3--0-----1--3--|
|--0--0--0--0--0--0--0--0--1-----0--0--|
|--2--4--4--2--4--4--2--4--0-----2--4--|
|--3--5--2--3--5--2--3--5--2-----0--5--|
|--------------------------------------|

Chorus:
|-----------------------------|
|--3-----3--1--3--3--0--1--3--|
|--2-----0--0--0--2--1--0--0--|
|--0-----2--2--4--0--0--2--4--|
|--------3--0--5-----2--0--5--|
|--3--------------3-----------|

Verse:
|-----------3--------------------------|
|--3--3--3--3--3--3--3--3--0-----1--3--|
|--0--0--0--0--0--0--0--0--1-----0--0--|
|--2--4--4--2--4--4--2--4--0-----2--4--|
|--3--5--2--3--5--2--3--5--2-----0--5--|
|--------------------------------------|

Chorus:
|-----------------------------|
|--3-----3--1--3--3--0--1--3--|
|--2-----0--0--0--2--1--0--0--|
|--0-----2--2--4--0--0--2--4--|
|--------3--0--5-----2--0--5--|
|--3--------------3-----------|

|-----7--------------|
|--4--8--3--3-----3--|
|--0--7--3--2----4---|
|--5--9--1--1---4----|
|--6--7--3-----------|
|-----------1--3-----|

Bridge:
|-------------------|
|---------0---------|
|---------1---------|
|---------0---------|
|---------2---------|
|--3-2-0-----0-2-3--|

|-----------------------------------|
|--3--7--7--5--7--7--5--7--7--5--3--|
|--5--7--7--5--7--7--5--7--7--5--0--|
|--5--7--6--5--7--6--5--7--6--5--4--|
|--------7--------7--------7-----5--|
|--5--7-----5--7-----5--7-----5-----|

Chorus:
|-----------------------------|
|--3-----3--1--3--3--0--1--3--|
|--2-----0--0--0--2--1--0--0--|
|--0-----2--2--4--0--0--2--4--|
|--------3--0--5-----2--0--5--|
|--3--------------3-----------|

|-----------------------------|
|--3-----0--1--3--3--0--1--3--|
|--2-----1--0--0--2--1--0--0--|
|--0-----0--2--4--0--0--2--4--|
|--------2--0--5-----2--0--5--|
|--3--------------3-----------|

Verse
|-----------3--------------------------|
|--3--3--3--3--3--3--3--3--0-----1--3--|
|--0--0--0--0--0--0--0--0--1-----0--0--|
|--2--4--4--2--4--4--2--4--0-----2--4--|
|--3--5--2--3--5--2--3--5--2-----0--5--|
|--------------------------------------|

Chorus
|--------------------------------------|
|--3-----0--1--3--3--0--1-----3-----3--|
|--2-----1--0--0--2--1--0----0-0----2--|
|--0-----0--2--4--0--0--2---4---4---0--|
|--------2--0--5-----2--0--5-----5-----|
|--3--------------3-----------------3--|
Добавлено: 07.04.2012
Другие материалы по этой песне:
  • Аккорды и текст

Страница создана 07.04.2012
http://primanota.ru/gabe-bondoc/temporary-chords.htm
Привет, Гость.
Предлагаем пройти революционный курс по гитаре.
Подарок от PrimaNota.Ru, забирай!