PrimaNota.ru - самый крупный в мире бесплатный архив песенных текстов, аккордов, табулатур и нот


Gabe Bondoc - She Is - таба, видео

Регистрация Запомнить меня
Войти через:  Facebook Google Twitter Vk Yandex Mail.ru

Gabe Bondoc - She Is - таба, видео

Печатать
Просмотров: 152
This tab was emailed to me by Hotpinoysauce and i'm just posting it here. thanks!

Gabe bondoc - She is 
tabbed by HotPinoysauce 

Tune 

E A D G B D  + Capo 1 

Intro 

D|---------0-|--------0-|--------0-|-------0-| 
B|--8--------|--7-------|--5-------|--/7-----| 
G|------0----|-----0----|-----0----|-----0---| 
D|-----------|----------|----------|---------| 
A|--7--------|--5-------|--3-------|--/6-----| 
E|-----------|----------|----------|---------| 

D|---------0-|--------0-|--------0-|-------0-| 
B|--8--------|--7-------|--5-------|--/10----| 
G|------0----|-----0----|-----0----|-----0---| 
D|-----------|----------|----------|---------| 
A|--7--------|--5-------|--3-------|--/9-----| 
E|-----------|----------|----------|---------| 


Vers: 
D|---------0-|--------0-|--------0-|-------0-| 
B|--8--------|--7-------|--5-------|--/7-----| 
G|------0----|-----0----|-----0----|-----0---| 
D|-----------|----------|----------|---------| 
A|--7--------|--5-------|--3-------|--/6-----| 
E|-----------|----------|----------|---------| 


D|---------0-|--------0-|--------0-|-------0-|--------0-| 
B|--8--------|--7-------|--5-------|--3------|--1-------| 
G|------0----|-----0----|-----0----|-----0---|-----0----| 
D|-----------|----------|----------|---------|----------| 
A|--7--------|--5-------|--3-------|--2------|--0-------| 
E|-----------|----------|----------|---------|----------| 



Instrumental: 

D|--------0-|-------0--|---------0-|-------0-|-------0-|--------0-| 
B|--8-------|--/10-----|--12-------|--15-----|--13-----|--\10-----| 
G|-----0----|-----0----|------0----|-----0---|-----0---|------0---| 
D|----------|----------|-----------|---------|---------|----------| 
A|--7-------|--/9------|--10-------|--14-----|--12-----|--\9------| 
E|----------|----------|-----------|---------|---------|----------| 
Добавлено: 19.03.2012
Другие материалы по этой песне:
  • Аккорды и текст

Страница создана 19.03.2012
http://primanota.ru/gabe-bondoc/she-is-chords.htm
Привет, Гость.
Предлагаем пройти революционный курс по гитаре.
Подарок от PrimaNota.Ru, забирай!