PrimaNota.ru - самый крупный в мире бесплатный архив песенных текстов, аккордов, табулатур и нот


Gabe Bondoc - Fine China - таба, видео

Регистрация Запомнить меня
Войти через:  Facebook Google Twitter Vk Yandex Mail.ru

Gabe Bondoc - Fine China - таба, видео

Печатать
Просмотров: 139
Song: Fine China
Covered by: Gabe Bondoc
Original: Chris Brown

--------------------------------------------------------------------------------------------

CAPO 1

Intro
e|-------------------------------------------------------------------------------|
B|-------------------------------------------------------------------------------|
G|-------------------------------------------------------------------------------|
D|----------------------------------9p5---------------------------------------9p5|
A|------5-5h7--7h10--------5--5h7---------------5--5h7--7h10--------5--5h7-------|
E|--5------------------5--------------------5-------------------5----------------|

e|---------------------------------------------------------------------------------------|
B|----------------------------------------------------------------3----3-3----3\---------|
G|----------9----------------9------------------------------------5----5-5----5\---------|
D|--------7----------------7------7h9---5h7-----------------------5----5-5----5\---------|
A|------8--------5h7---8-8-----------------------5-5h7--7h10------x----x-x----x----------|
E|--10------------------------------------------------------------5----5-5----5\---------|

Am4: 5x553x
Am7: x0201x
G/B: x2003x
Cmaj7: x32000
A7/C#: x4x000
Dm7: x57565
Fmaj9: x8798x
E7b3: x7678x
Bbadd6: 6x556x

Verse I
Am4                 Am4 Am4 Am4
Baby, does he do it for you
                                           Am7   G/B  Cmaj7
When he's finished, does he step back, and adore you
A7/C#   Dm7                   Fmaj9       E7b3
I just gotta know, cause your time is money
                   Am4 Am4 Am4     Am4 Am4 Am4\
And I won't let him waste it, oh no, no
Am4
Baby, just go with it
Am4             Am4 Am4 Am4                             Am7   G/B   Cmaj7
Cause when you're with me, I can't explain it, it's just different
A7/C#   Dm7            Fmaj9              E7b3               Am4 Am4 Am4
We can take it slow or act like you're my girl let's skip the basics, oh woah

Pre-Chorus
Dm7        Am4       (NOTES: g g# a c c# c#)
He's so replaceable
Dm7               Bbadd6
You're worth the chase, you put it on

Chorus
Am4                  Am4 Am4 Am4
It's alright, I'm not dangerous
Am4 Am4 Am4              Am7  G/B   Cmaj7
When you're mine, I'll be generous
      A7/C#    Dm7
You're irreplaceable
Fmaj9     E7b3          Am4 Am4 Am4
A collectible, just like fine china

Verse II
Favorite, you're my favorite
It's like all the girls around me don't have faces
And the saying goes
Life is just a game but I'm not playin'

Bridge
Am4 Am4 Am4
Give me a weapon, your love
Am4 Am4 Am4
Ain't no amount of time, in this world
Am4 Am4 Am4           
Save me a lot of time, and just love me
Am7     G/B    Cmaj7  A7/C#     Dm7
Feel it baby, feel it in your soul
Are you ready?
Fmaj9                    E7b3            Am4 Am4 Am4
I know your heart's been telling you you belong to me
Добавлено: 09.08.2013
Вам также может быть интересно:
Другие материалы по этой песне:
  • Аккорды и текст

Страница создана 09.08.2013
http://primanota.ru/gabe-bondoc/fine-china-chords.htm
Привет, Гость.
Предлагаем пройти революционный курс по гитаре.
Подарок от PrimaNota.Ru, забирай!