PrimaNota.ru - самый крупный в мире бесплатный архив песенных текстов, аккордов, табулатур и нот


G3 - En Tus Ojos - аккорды и текст, видео

Регистрация Запомнить меня
Войти через:  Facebook Google Twitter Vk Yandex Mail.ru

G3 - En Tus Ojos - аккорды и текст, видео

Печатать
Просмотров: 70
En Tus Ojos
G3
intro: bajo

G------------------------------------------------------------------
D----------------7-7-----------------------------------------------
A--7-7--7------------8-8-7-7---------------------------------------
E---------5-5--5---------------------------------------------------


E5            A5           A5*   F5 E5      
Siempre conseguiste lo que ansiaste tener, 
E5         A5        A5*   F5 E5
siempre hiciste lo que quiziste hacer,
E5            A5           A5*   F5 E5
todo el sentimiento existió solo para ti, 
E5            A5        A5*   F5 E5
no sabes otra forma, te gusta hacerlo así

D5    A5     B5     D5  G5   A#5
Todas las mentiras y la hipocresía 
D5      A5     B5        D5  G5   A#5
detrás de tu sonrisa las veo en tus ojos

E5            A5       A5*   F5 E5
Usas los sentimientos luego te largas, 
E5            A5      A5*   F5 E5
usas a mis amigos luego los acuchillas, 
E5            A5         A5*   F5 E5
ponte en la bandeja consigues lo que quieres 
E5            A5    A5*   F5 E5
luego a la semana tíralos a un lado

CORO

E5   A5     A5*   F5 E5      E5          A5       A5*   F5 E5
Creíste,             que podías engañar, 
E5              A5   A5*   F5 E5      E5         A5         A5*   F5 E5
ahora has comprobado,            que algún día perderás

CORO

G5/A                  F5 C5
 Nunca mas !!!             x8
 
      
E-----------------------------------------------------------------------------------
B-----------------------------------------------5--8-5-8---5--8-10b8b7-10b8b7-10b8b7
G---------4-5-4----7-5-4--7-5-4-----------4-5-7-----------7-------------------------
D---5-7---------7---------------7-----5-7-------------------------------------------
A-----------------------------------------------------------------------------------
E-----------------------------------------------------------------------------------

E-----------------------------------------------------------------------------------
B-10b8b7---5------------------------------------------------------------------------
G------------7-5--4-4b5b4-----------------------------------------------------------
D-------------------------7-5-7--7b5------------------------------------------------
A-----------------------------------------------------------------------------------
E-----------------------------------------------------------------------------------

G5/A      F5 C5      x3   y se repite...
con wah:
E-----------------------------------------------------------------------------------
B---------------------------------------14--14w-------------------------------------
G-----------------------------------------------------------------------------------
D--3/5-5--3b5-5-3b5-3b5-5-3b5-5-----------------------------------------------------
A-----------------------------------------------------------------------------------
E-----------------------------------------------------------------------------------

Nunca mas, en tus ojos, nunca mas !!!

A5* = en A 4ta cuerda


KrozbY
Добавлено: 09.02.2016
Другие материалы по этой песне:
  • Аккорды и текст

Страница создана 09.02.2016
http://primanota.ru/g3/en-tus-ojos-chords.htm
Привет, Гость.
Предлагаем пройти революционный курс по гитаре.
Подарок от PrimaNota.Ru, забирай!