PrimaNota.ru - самый крупный в мире бесплатный архив песенных текстов, аккордов, табулатур и нот


G3 - Desconexión - аккорды и текст, видео

Регистрация Запомнить меня
Войти через:  Facebook Google Twitter Vk Yandex Mail.ru

G3 - Desconexión - аккорды и текст, видео

Печатать
Просмотров: 53
Desconexión
G3
INTRO:

A5 G5 A#5


A5 G5 A#5     A5   G5 A#5
Estoy por desequilibrarme 
A5     G5 A#5    A5    G5 A#5
por la cara  del mundo real
A5    G5   A#5        A5    G5 A#5
no es haci como lo he imanginado
A5     G5 A#5 A5     G5 A#5   G5    
en mis sueños de ansiedad.


A5 G5 A#5
A5 G5 A#5

A5 G5 A#5   A5    G5 A#5
Estoy por desenchufarme
A5    G5 A#5   A5   G5 A#5
de la carga de la rutina
A5    G5   A#5     A5    G5 A#5
no es haci como lo he planeado
A5  G5 A#5        A5 G5 A#5    G5
ser parte de esta maquina.

CORO:

A5  G5 A#5 A5     G5    A#5 A5    G5 A#5 A5         G5 A#5 
y estoy aqui, trantando de  ser un habitante del planeta.
A5  G5 A#5 A5    G5      A#5 A5     G5    A#5 A5             G5 A#5  
Y estoy haci, queriendo obtener por mí lo que antes vi en promesas.

A5 G5 A#5 A5 G5 A#5
A5 G5 A#5 A5 G5 A#5

A5  G5    A#5  A5   G5 A#5
Pienso en no desesperarme 
A5    G5 A#5     A5 G5 A#5
lo que veo no es el final
A5   G5 A#5 A5   G5 A#5
solo quiero demostrarme
A5    G5   A#5     A5       G5 A#5
que a mi alrededor hay algo mas.

CORO:

A5  G5 A#5 A5     G5    A#5 A5    G5 A#5 A5         G5 A#5 
y estoy aqui, trantando de  ser un habitante del planeta.
A5  G5 A#5 A5    G5      A#5 A5     G5    A#5 A5             G5 A#5  
Y estoy haci, queriendo obtener por mí lo que antes vi en promesas.

PUNTEO:
E-|---------------------------------------------------------|
B-|---------------------------------------------------------|
G-|----6-7-6-7-7-9--10-9--7-9-7-6---6-----6-----6---6-6-----| 
D-|--7-----------------------------7-8-7-7-8-7-7-8-7-8------|
A-|---------------------------------------------------------|
E-|---------------------------------------------------------|

E-|---------------------------------------------------------|
B-|---------------------------------------------------------|
G-|-7-6-7-6--7-6-7/9-10-9-10-9--7-9-7-6--6-----6-----6------| 
D-|-------------------------------------7-8-7-7-8-7-7-8-----|
A-|---------------------------------------------------------|
E-|---------------------------------------------------------|


En esta parte se repiten estos acorde:

A5 G5 A#5

Sal de mi y deja que siga por donde debo ir
Sueltame y no me digas lo que tengo que oir
Sigueme y luego mira por donde quiero ir
Dejame y no repitas lo que veo venir
Desconectado, Desconectado
No quiero saber más!

notas
     A5 G5 A#5
E-|-------------------|
B-|-------------------|
G-|-------------------|
D-|--7--5--8----------|
A-|--7--5--8----------|
E-|--5--3--6----------|

Busco batero!!!!!!
Добавлено: 09.02.2016
Другие материалы по этой песне:
  • Аккорды и текст

Страница создана 09.02.2016
http://primanota.ru/g3/desconexion-chords.htm
Привет, Гость.
Предлагаем пройти революционный курс по гитаре.
Подарок от PrimaNota.Ru, забирай!