PrimaNota.ru - самый крупный в мире бесплатный архив песенных текстов, аккордов, табулатур и нот


G Mike - Uh-huh - таба, видео

Регистрация Запомнить меня
Войти через:  Facebook Google Twitter Vk Yandex Mail.ru

G Mike - Uh-huh - таба, видео

Печатать
Просмотров: 133
Author/Artist: Mike G
Title: uh-huh
Album: Sugar Daddy
Transcribed by: Sonny
Email: aladygo1@hotmail.com

Comments: Probably the best party song I've heard in a long time. Extremely 
well done.


[Intro]

   D              f#              G             A
E--------------|---------------|--------------|---------------|
B--------------|---------------|--------------|---------------|
G--7---7--7-7--|---------------|--------------|---------------|
D--7---7--7-7--|--4-4---4--4-4-|--5---5--5-5--|-7-7--7--7-7---|
A--5---5--5-5--|--4-4---4--4-4-|--5---5--5-5--|-7-7--7--7-7---|
E--------------|--2-2---2--2-2-|--3---3--3-3--|-5-5--5--5-5---|

Uh-huh, uh-huh,  yeah.               Yeah, come on.

   D              f#              A             G
E--------------|---------------|--------------|---------------||
B--------------|---------------|--------------|---------------||
G--7---7--7-7--|---------------|--------------|---------------||
D--7---7--7-7--|--4-4---4--4-4-|--7---7--7-7--|-5-5--5--5-5---||
A--5---5--5-5--|--4-4---4--4-4-|--7---7--7-7--|-5-5--5--5-5---||
E--------------|--2-2---2--2-2-|--5---5--5-5--|-3-3--3--3-3---||

Uh-huh, uh-huh,  yeah,  come on.               Yeah.


[Verse #1]

       D           f#              G             A
E---|-----------|---------------|--------------|---------------|
B---|-----------|---------------|--------------|---------------|
G---|------7-7--|-----6-6-6-----|--4-----6-----|---------------|
D-7-|--4-7------|---------------|-----------7--|--4------------|
A---|-----------|---------------|--------------|-----7--5------|
E---|-----------|---------------|--------------|---------------|

You carry the weight on your shoulders, I know   but you wait-

       D           f#              G              A
E---|-----------|---------------|--------------|---------------||
B---|---7-------|--(7)----------|--5------3/5--|---3-----------||
G---|---7-------|--(7)----------|--6------4/6--|---4-----------||
D---|-----------|---------------|--------------|---------------||
A---|-----------|---------------|--------------|---------------||
E---|-----------|---------------|--------------|---------------||

       ting                        Ooh________________


You carry the wieght of the the world.
You know I know. Ooh__________.

[Verse #2]
Here I am, getting to know you.
Be patient. It's hard
not to have what you own. I know.

[Repeat Intro]
[Repeat Verse #1]

     
Добавлено: 28.10.2013
Другие материалы по этой песне:
  • Аккорды и текст

Страница создана 01.10.2013
http://primanota.ru/g-mike/uh-huh-chords.htm
Привет, Гость.
Предлагаем пройти революционный курс по гитаре.
Подарок от PrimaNota.Ru, забирай!