PrimaNota.ru - самый крупный в мире бесплатный архив песенных текстов, аккордов, табулатур и нот


G Mike - Standing At The Party - таба, видео

Регистрация Запомнить меня
Войти через:  Facebook Google Twitter Vk Yandex Mail.ru

G Mike - Standing At The Party - таба, видео

Печатать
Просмотров: 117
Author/Artist: Mike G
Title: standing at the party
Album: Sugar Daddy
Transcribed by: Sonny
Email: aladygo1@hotmail.com

Comments: A very simple 2-chord song, but Mike G keeps it swanky. Not his 
best work, in my opinion, but a good opening to a solid album. But 
seriously, does EVERY song have to have his answering machine in the 
background?

Bass line:

G--------------|---------------|--------------|---------------||
D-------4h5----|----------2h3--|-------4h5----|---------------||
A--5--5-----3--|--0-3----------|--5--5-----3--|--0-3----------||
E--------------|---------------|--------------|---------------||

[Verse #1]

   D              C               D              C
E--------------|---------------|--------------|---------------|
B--------------|---------------|--------------|---------------|
G--------------|---------------|--------------|-------5---7---|
D--(7)---------|--(7)----------|--------------|---/7----------|
A--------------|---------------|--------------|---------------|
E--------------|---------------|--------------|---------------|

Standing at the party and there's nothing going on...

   D              C               D              C
E--------------|---------------|--------------|---------------||
B--------------|---------------|--------------|---------------||
G--(7)---------|--(7)----------|--------------|-------5-------||
D--------------|---------------|--------------|---/7------7---||
A--------------|---------------|--------------|---------------||
E--------------|---------------|--------------|---------------||

The conversations dying and you wish that you were gone.

But your friend is with a girl in the other room...
He's got the keys and he won't be leaving soon.


["Other" part (not really a bridge or chorus)]

   D              C               D              C
G--------------|---------------|--------------|---------------||
D--------------|---------------|--------------|---------------||
A--3h5-5-3-5-3-|-/7--5--3--3h5-|--3h5-5-3-5---|--3------------||
E--------------|---------------|--------------|---------------||

You know it's getting too late and you think you'd better leave...
You know it's getting too late and you think you'd better leave...

[Verse #2]
Johhny got Judy up to his room.
Judy was a nice girl Johnny was a bad dude.
He put on some soft music and dimmed the lights low.
Here comes Johhny with the move.

[Repeat "other" part]

     
Добавлено: 01.07.2013
Вам также может быть интересно:
Другие материалы по этой песне:
  • Аккорды и текст

Страница создана 01.07.2013
http://primanota.ru/g-mike/standing-at-the-party-chords.htm
Привет, Гость.
Предлагаем пройти революционный курс по гитаре.
Подарок от PrimaNota.Ru, забирай!