PrimaNota.ru - самый крупный в мире бесплатный архив песенных текстов, аккордов, табулатур и нот


G Mike - Nothing In The Sky - таба, видео

Регистрация Запомнить меня
Войти через:  Facebook Google Twitter Vk Yandex Mail.ru

G Mike - Nothing In The Sky - таба, видео

Печатать
Просмотров: 216
Уроки эстрадного вокала в Санкт-Петербурге
Author/Artist: Mike G
Title: Nothing in the Sky
Album: Sugar Daddy
Transcribed by: Sonny
Email: aladygo1@hotmail.com

Comments: Pretty damn catchy.


[Intro]

E---------------------||
B---------------------||
G-6/7-7-7-7-7\6-6-6-4-||
D---------------------||
A---------------------||
E---------------------||

[Verse #1]

    G              b               C               D
E|-------------|---------------|----------------|---------------|
B|-------------|---------------|----------------|---------------|
G|------5---4--|-(4)-----------|-----------5--4-|-(4)-----------|
D|--2-5--------|--------2----2-|--2----5--------|---------------|
A|-------------|---------------|----------------|---------------|
E|-------------|---------------|----------------|---------------|

I'm on the move        but  I    can't cut you loose.     'Cause

    G              b               C
E|-------------|---------------|----------------|---------------|
B|-------------|---------2-----|----------------|---------------|
G|------5---0--|---4--------2\0|--0-------------|---------------|
D|--2-5--------|---------------|----------------|---------------|
A|-------------|---------------|----------------|---------------|
E|-------------|---------------|----------------|---------------|

   you always know where to find   me.                      We

     G             b               C               D
E|-------------|---------------|----------------|---------------|
B|---------2---|---------------|----------------|---------------|
G|--4--4------2|-0----------0--|--2-------------|---------------|
D|-------------|---------------|------5----2-5--|---------------|
A|-------------|---------------|----------------|---------------|
E|-------------|---------------|----------------|---------------|

   buried his soul          a    long time ago.       But if you

     e             f               G                         f
E|-------------|---------------|----------------|---------------|
B|-0-----------|-0-------------|----------------|---------------|
G|---2--2------|------2---2--0-|--0-------------|---------------|
D|----------2--|---------------|----------------|---------------|
A|-------------|---------------|----------------|---------------|
E|-------------|---------------|----------------|---------------|

want us to we'll get it back again.


[Pre-Chorus]

    e                          f                G
E|--------------------------|----------------|----------------|---------------|
B|--------------------------|--1-----1--1-1--|-1--0-----------|---------------|
G|--------------------------|----------------|----0-----------|---------------|
D|-2-2-2----2--2---2-----2--|--3-----3--3-3--|-3--------------|---------------|
A|--------------------------|----------------|----------------|---------------|
E|--------------------------|----------------|----------------|---------------|

I'm hangin' on the east side, there's a man behind me.

    e                          f                G
E|--------------------------|----------------|----------------|---------------|
B|--------------------------|--1-----1--1-1--|-0--------------|---------------|
G|--------------------------|----------------|-0--------------|---------------|
D|-2-2-2----2--2---2-----2--|--3-----3--3-3--|----------------|---------------|
A|--------------------------|----------------|----------------|---------------|
E|--------------------------|----------------|----------------|---------------|

Talking to himself but he's   loud enought to hear.

    e                          f                G
E|--------------------------|----------------|----------------|---------------|
B|--------------------------|--1-----1--1-1--|-1--0-----------|---------------|
G|--------------------------|----------------|----0-----------|---------------|
D|-2-2-2----2--2---2-----2--|--3-----3--3-3--|-3--------------|---------------|
A|--------------------------|----------------|----------------|---------------|
E|--------------------------|----------------|----------------|---------------|

He's got a winter hat on and it's just before September.

    e                          f                G
E|--------------------------|----------------|----------------|---------------|
B|--------------------------|--1-----1--1-1--|-0--------------|---------------|
G|--------------------------|----------------|-0--------------|---------------|
D|-2-2-2----2--2---2-----2--|--3-----3--3-3--|----------------|---------------|
A|--------------------------|----------------|----------------|---------------|
E|--------------------------|----------------|----------------|---------------|

Talking to himself and he's   loud enought to hear.             And he says:

[Chorus]

       G           b               C
E|-------------|--0------------|----------------|---------------|
B|-------3-----|----3----0-----|----------------|---------------|
G|--4----------|------------0--|--2--2/4--------|---------------|
D|-------------|---------------|----------------|---------------|
A|-------------|---------------|----------------|---------------|
E|-------------|---------------|----------------|---------------|

   There is      nothing in the   sky.


       G           b               C               D
E|-------------|---------------|----------------|---------------|
B|-------------|---------------|----------------|---------------|
G|-----------0-|-4---4---4-2-0-|---2-0----------|---------------|
D|-------------|---------------|-------2/5------|---------------|
A|-------------|---------------|----------------|---------------|
E|-------------|---------------|----------------|---------------|

             G what are you waiting for?

       G           b               C               D
E|-------------|--0------------|----------------|---------------|
B|-------3-----|----3-----0----|----------------|---------------|
G|--4----------|-------------0-|-2--2/4---------|---------------|
D|-------------|---------------|----------------|-0--2---0--2-0-|
A|-------------|---------------|----------------|---------------|
E|-------------|---------------|----------------|---------------|

   There is      nothing when we try              to find a little

    e             f               G
E|-------------|---------------|----------------|---------------|
B|-------------|--1----1----0--|-(0)------------|---------------|
G|--2--4-------|--2----2----0--|-(0)------------|---------------|
D|---------2-0-|---------------|----------------|---------------|
A|-------------|---------------|----------------|---------------|
E|-------------|---------------|----------------|---------------|
   more.  Whoa_______________________.

[Verse #2]
I'll never lose if you never choose.
And you always had trouble deciding.
We buried his soul and you didn't know.
But if you want us to will get it back again.

[Repeat Pre-Chorus]
[Repeat Chorus]

     
Добавлено: 16.11.2013
Другие материалы по этой песне:
  • Аккорды и текст

Страница создана 16.11.2013
http://primanota.ru/g-mike/nothing-in-the-sky-chords.htm
Привет, Гость.
Предлагаем пройти революционный курс по гитаре.
Подарок от PrimaNota.Ru, забирай!