PrimaNota.ru - самый крупный в мире бесплатный архив песенных текстов, аккордов, табулатур и нот


G Mike - Anything You Want - таба, видео

Регистрация Запомнить меня
Войти через:  Facebook Google Twitter Vk Yandex Mail.ru

G Mike - Anything You Want - таба, видео

Печатать
Просмотров: 142
Author/Artist: Mike G
Title: Anything You Want
Album: Sugar Daddy
Transcribed by: Sonny
Email: aladygo1@hotmail.com

Comments: This song is not nearly as cheesy as it sounds when you read it. 
It's a nice ironic song. It also has a great backwards guitar solo, which 
you don't hear very often in this digital age. Mike G keeps it real with 
good old analog tape decks and jokes about how bad he is with women. 
However, it is the arrangement (and recording) of this piece that makes is 
so wonderful.


Chords:

   G   e   a   C   F
E|-3-|-0-|-0-|-0-|-1-|
B|-3-|-0-|-1-|-1-|-1-|
G|-0-|-0-|-2-|-0-|-2-|
D|-0-|-2-|-2-|-2-|-3-|
A|---|-2-|-0-|-3-|-3-|
E|-3-|-0-|---|---|-1-|

Verse #1:

   G                        e
E|-----------------------|--------------------------|
B|---------------------0-|-0------------------------|
G|-----------------------|--------------------------|
D|-0-0----0---0---0--0---|--------------------------|
A|-----------------------|--------------------------|
E|-----------------------|--------------------------|

  I know you had to get away.                   But

   a           e            a           C
E|-----------------------|--------------------------|
B|-----------------------|--------------------------|
G|--2-----2--4--0------0-|--2----2--4----0----------|
D|-----------------------|---------------------2--0-|
A|-----------------------|--------------------------|
E|-----------------------|--------------------------|

   please hurry home, 'cause I'm waiting here for you.

   G                        e
E|-----------------------|--------------------------|
B|---------------------0-|-0------------------------|
G|-----------------------|----2----0-------0--------|
D|-0-0-0----0-----0-0-0--|--------------------------|
A|-----------------------|--------------------------|
E|-----------------------|--------------------------|

And I know right now might seem a  bit too late.  But

   a           F            C              a
E|-----------------------|--------------------------|
B|-----------------------|--------------------------|
G|-2--2---2----2---2---2-|-0---0---2---0---2---2/4--|
D|-----------------------|--------------------------|
A|-----------------------|--------------------------|
E|-----------------------|--------------------------|

  I'm all alone,   and I  want you to know if there's

   G         C              e
E|-----------------------|--------------------------|
B|----3--3-3-1-1----1--1-|-0------------------------|
G|-----------------------|---------------0--2-------|
D|-----------------------|-----------------------2--|
A|-----------------------|--------------------------|
E|-----------------------|--------------------------|

      anything that you want.            I would do

   G         C              a
E|-----------------------|--------------------------|
B|----3-3-3--1-1---1--1--|-1------------------------|
G|-----------------------|--------------------------|
D|-----------------------|--------------------------|
A|-----------------------|--------------------------|
E|-----------------------|--------------------------|

      Anything you wanted.


[Verse #2]
I watch another minute pass.
The clocks moving slow,
and I'm thinging of you again.
But now my heart is beating oh so fast.
There's nowhere to go,
and I need you to know If there's...

[Chorus]

     
Добавлено: 20.08.2013
Другие материалы по этой песне:
  • Аккорды и текст

Страница создана 20.08.2013
http://primanota.ru/g-mike/anything-you-want-chords.htm
Привет, Гость.
Предлагаем пройти революционный курс по гитаре.
Подарок от PrimaNota.Ru, забирай!