PrimaNota.ru - самый крупный в мире бесплатный архив песенных текстов, аккордов, табулатур и нот


G. Love & Special Sauce - Superhero Brother - таба, видео

Регистрация Запомнить меня
Войти через:  Facebook Google Twitter Vk Yandex Mail.ru

G. Love & Special Sauce - Superhero Brother - таба, видео

Печатать
Просмотров: 118
Artist: G. Love & Special Sauce
Title : Superhero Brother
Album : Superhero Brother
Year  : 2008

========================================================

I'm sure this is not the way to acctually play it, but it's the best i could come up with..

========================================================

No idea on the intro really, but it sounds something in this direction

--5(x7)--3--0--0h3--0--0h3--0--0h3--0-------------------------------------------------------|
---------------------------------------3--2--3--3--2--3--3/5--------------------------------|
---------------------------------------------------------------Something here---7--5--------|
--------------------------------------------------------------------------------------6--7--|
--0------0--0--0----0--0----0--0----0--0--0--0--0--0--0--0----------------------0--0--0--0--|
--------------------------------------------------------------------------------------------|

Rest of the song, i use the thumb for the bass and then extend my fingers and then draw them
back in for the strokes, play with it.

       D  U           D  U          D  U
-------5--5-----------5--5----------5--5------|
-------5--5-----------7--7----------5--5------|
-------6--6-----------7--7----------6--6------|
-------7--7-----------7--7--0-------7--7------|
-------------0--5--5--------------------------|
-5--5-------------------------5--5------------|

Also alternate with something like, improvise

       D  U           D  U          D  U
-------5--5--------------5------------5--5----|
-------5--5-----------7-----7---------5--5----|
-------6--6---------------------------6--6----|
-------7--7---------------------------7--7----|
-------------0--5--5--------------------------|
-5--5---------------------------5--5----------|

and then this happens sometimes, the 0 0 in the middle sounds
kinda just like a slap or something to me, improvise

----------------------------------------------------|
--10--10--10--10--10--9------8--8--7--5--5--3--0----|
-------------------------0--------------------------|
-------------------------0--------------------------|
--7---7---7---7---7---7------5--5--5--3--3--1-------|
----------------------------------------------------|
Добавлено: 19.10.2013
Другие материалы по этой песне:
  • Аккорды и текст

Страница создана 19.10.2013
http://primanota.ru/g-love-and-special-sauce/superhero-brother-chords.htm
Привет, Гость.
Предлагаем пройти революционный курс по гитаре.
Подарок от PrimaNota.Ru, забирай!