PrimaNota.ru - самый крупный в мире бесплатный архив песенных текстов, аккордов, табулатур и нот


G. Love & Special Sauce - Rodeo Clowns - аккорды и текст, таба, видео

Регистрация Запомнить меня
Войти через:  Facebook Google Twitter Vk Yandex Mail.ru

G. Love & Special Sauce - Rodeo Clowns - аккорды и текст, таба, видео

Печатать
Просмотров: 110
Rodeo Clowns
G. Love & Special Sauce
Song: Rodeo Clowns
Artist:  G Love & Special Sauce
Album:  Philadelphonic
Tuning:  Standard on Acoustic

Transcribed By:  J Money @fugazi44jdm@yahoo.com

Easy song and fun to play....all barred cords with a
solo lying in such.  Check the track for timing.


intro/verse

E-----4-----2-----5-----4
B-----5-----2-----5-----4
G-----4-----3-----6-----5
D-----6-----2-----5-----4
A-----4-----4-----7-----6
E-----4-----2-----5-----4

chorus

E-----4-----4-----5-----2
B-----5-----4-----5-----2
G-----4-----5-----6-----3
D-----6-----4-----5-----2
A-----4-----6-----7-----4
E-----4-----4-----5-----2

enjoy!!

=====
LT Jonathan D Monti, PA-C
2/319th AFAR, 82nd ABN DIV
Ft. Bragg, N.C
(910)907-9415
fugazi44jdm@yahoo.com
     
Добавлено: 19.09.2013
Другие материалы по этой песне:
  • Аккорды и текст

Страница создана 15.05.2012
http://primanota.ru/g-love-and-special-sauce/rodeo-clowns-chords.htm
Привет, Гость.
Предлагаем пройти революционный курс по гитаре.
Подарок от PrimaNota.Ru, забирай!